Cifra Club

Aprenda

Numb

Linkin Park

Cifra: Versão 6 (violão e guitarra)
tom: A
Afinação: meio tom abaixo com a corda mais grossa afinada em C#

Solo intro:2x

Eb|----17-----14--17--16----|----17-----17--16-----
Bb|-14----14----------------|-14----14----------17-
F#|-------------------------|----------------------
C#|-------------------------|----------------------
G#|-------------------------|----------------------
C#|-------------------------|----------------------

na segunda vez entra a guitarra:
Eb|-----------------
Bb|-----------------
F#|-----------------
C#|--5~--1~--8~--3~-
G#|--5~--1~--8~--3~-
C#|--5~--1~--8~--3~-

 termina com:
Eb|----13----15----------------------|
Bb|-15----15-------------------------|
F#|----------------------------------|
C#|----------------------------------|
G#|----------------------------------|
C#|----------------------------------|

(F#m,D,A,E) (F#m,D,A,E)
i'm tired of being what you want me to be 
feeling so faithless 
lost under the surface
i don't know what you're expecting of me
put under the pressure 
of walking in your shoes 

(F#m,D,A,E) (F#m,D)
[caught in the undertow / just caught in the undertow]
every step that i take is another mistake to you 
(caught in the undertown / just caught in the undertown )

Refrão
    F#m   D    A    E 
Eb|--------------------
Bb|--------------------
F#|--------------------
C#|--5~---1~---8~---3~-
G#|--5~---1~---8~---3~-
C#|--5~---1~---8~---3~-

F#m
i've 
          D
become so numb
                 A
i can't feel you there
          E 
become so tired
             F#m
so much more aware
             D
i'm becoming this
              A
all i want to do
           E
is be more like me
                 F#m 
and be less like you 

(F#m,D,A,E) (F#m,D,A,E)
can't you see that you're smothering me
holding too tightly 
afraid to lose control
cause everything that you thought i would be
has fallen apart right in front of you 


(F#m,D,A,E) (F#m,D,A,E)
[caught in the undertow / just caught in the undertow]
every step that i take is another mistake to you
[caught in the undertow / just caught in the undertow]
and every second i waste is more than i can take 

F#m
i've 
          D
become so numb
                 A
i can't feel you there
          E 
become so tired
             F#m
so much more aware
             D
i'm becoming this
              A
all i want to do
                E
is be more like me
                 D
and be less like you 

Eb|--------------------|
Bb|--------------------|
F#|--------------------|
C#|--5~---1~---8~---3~-|
G#|--5~---1~---8~---3~-|
C#|--5~---1~---8~---3~-|

após o refrão entra essa parte:

Eb|-------------------------------
Bb|-------------------------------
F#|-------------------------------
C#|--1~--3--5-7-8-0-1--3--0--0--0-
G#|--1~--3--5-7-8-0-1--3--0--0--0-
C#|--1~--3--5-7-8-0-1--3--0--0--0-
    E
And i know
      F#m G#  A   E    D 
i may end up failing too
      E
but i know
         C#     
you were just like me
                              (F#m)
with someone disappointed in you 

*REFRÃO2x*

Solo intro.
Composição de Brad Delson / Chester Charles Bennington / Dave Farrell / Joseph Hahn / Mike Shinoda / Robert G. Bourdon
Colaboração e revisão:
  • Guilherme Cunha
45.666 exibições
    • ½ Tom
    • A
    • Bb
    • B
    • C
    • Db
    • D
    • Eb
    • E
    • F
    • F#
    • G
    • Ab
  • Adicionar à lista

    0 comentários

    Ver todos os comentários
    00:00 / 00:00
    Outros vídeos desta música
    Repetir Qualidade Automático
    Outros vídeos desta música
    00:00 / 00:00
    Automático
    Capítulos
    • Tocando a música
    • Apresentação / Equipamentos
    • Afinação Drop Bb
    • Configuração do pedal
    • Acordes Introdução
    • Tocando Introdução
    • Riff da introdução
    • Base da introdução
    • Tocando Segunda Parte
    • Riff 1 - Estrofes
    • Dicas Repetição
    • Acordes da ponte
    • Tocando ponte
    • Base da ponte
    • Encerramento

    Cifra Club Pro

    Aproveite o Cifra Club com benefícios exclusivos e sem anúncios
    Cifra Club Pro
    Aproveite o Cifra Club com benefícios exclusivos e sem anúncios
    OK