Cifra Club

One More Light

Linkin Park

Cifra: Principal
exibições 25.456
Tom: G# (com acordes na forma de G) Capotraste na 1ª casa
[Intro] Em7  C9  G  G/F#
        Em7  C9  G  G/F#
  
              Em7              C9        G     G/F#
Should I've stayed, where the signs I ignored?
       Em7              C9       G    G/F#
Can I help you, not to hurt, anymore?
         Em7                C9          G   G/F#
We saw brilliance when the world was asleep
            Em7               C9              D
There are things that we can have, but can't keep
         D
If they say 
     D                 Em7
Who cares if one more light goes out?
       C9               G
In a sky of a million stars
It flickers, flickers
     G/F#                 Em7
Who cares when someone's time runs out?
      C9              G
If a moment is all we are
We're quicker, quicker
     G/F#              Em7
Who cares if one more light goes out?
     Am  G  G/F#
Well I  do

       Em7               C9             G   G/F#
The reminders pull the floor from your feet
     Em7          C9                 G    G/F#
In the kitchen, one more chair than you need oh
           Em7              C9                 G
And you're angry, and you should be, it's not fair
      G/F#            Em7            C9             D
Just cause you can't see it doesn't mean it isn't there    
If they say
     D                 Em7
Who cares if one more light goes out?
       C9               G
In a sky of a million stars
It flickers, flickers
     G/F#                 Em7
Who cares when someone's time runs out?
      C9              G
If a moment is all we are
We're quicker, quicker
     G/F#              Em7
Who cares if one more light goes out?
     Am  G  G/F#
Well I  do

[Solo]  Em7  C9  G  G/F#
        Em7  C9  G  G/F#
        Em7  C9  D

E|------------------------------10-10-10------------|
B|--12-12-12-12--10-10-8-8-8-8------------10-10-10--|
G|--------------------------------------------------|
D|--------------------------------------------------|
A|--------------------------------------------------|
E|--------------------------------------------------|

E|-------------------------------10-10-10-----------|
B|-8–10-10-10-12-12-10--8-8-8-8-----------10-10-10--|
G|--------------------------------------------------|
D|--------------------------------------------------|
A|--------------------------------------------------|
E|--------------------------------------------------|

E|--------------------------------------------------|
B|-10-10-10--8--10-10-10-12-12-10-8-8-8-8-----------|
G|--------------------------------------------------|
D|--------------------------------------------------|
A|--------------------------------------------------|
E|--------------------------------------------------|

E|-10-10-10-----------------------------------------|
B|-----------10-10-10-8--10-10-10-12-12-------------|
G|--------------------------------------------------|
D|--------------------------------------------------|
A|--------------------------------------------------|
E|--------------------------------------------------|

E|--------------------------------------------------|
B|-8-10-10-8--10--12-12--8--10----------------------|
G|--------------------------------------------------|
D|--------------------------------------------------|
A|--------------------------------------------------|
E|--------------------------------------------------|

     D                 Em7
Who cares if one more light goes out?
       C9               G
In a sky of a million stars
It flickers, flickers
     G/F#                 Em7
Who cares when someone's time runs out?
      C9              G
If a moment is all we are
We're quicker, quicker
     G/F#              Em7
Who cares if one more light goes out?
     Am  G
Well I  do
I do
Acordes para:

    0 comentários

      mostrar mais comentários

      Conseguiu tocar?

      11tocaram1ainda não

      Grave um vídeo tocando One More Light e mande pra gente!

      00:00 / 00:00
      outros vídeos desta música
      repetirqualidadeautomática
      Outro vídeos desta música
        00:00 / 00:00
        automática
        OK