Cifra Club

One More Light

Linkin Park

Cifra: Principal
exibições 32.294
Tom: G# (com acordes na forma de G) Capotraste na 1ª casa
(Capo na 1ª Casa)

[Intro 2x] Em  C7M(6)  G  G/F#

[Dedilhado da introdução]

Parte 1
   Em              C7M(6)
E|---7---7---7---7---5---5---5---5----------|
B|---0---0---0---0---0---0---0---0----------|
G|---0---0---0---0---0---0---0---0----------|
D|------------------------------------------|
A|-7---7---7---7---3---3---3---3------------|
E|------------------------------------------|

Parte 2
   G                       G/F#
E|---7---7---7---7---7---7---7---7----------|
B|---0---0---0---0---0---0---0---0----------|
G|---0---0---0---0---0---0---0---0----------|
D|-5---5---5---5---5---5---4---4------------|
A|------------------------------------------|
E|------------------------------------------|

Parte 1
   Em              C7M(6)
E|---7---7---7---7---5---5---5---5----------|
B|---0---0---0---0---0---0---0---0----------|
G|---0---0---0---0---0---0---0---0----------|
D|------------------------------------------|
A|-7---7---7---7---3---3---3---3------------|
E|------------------------------------------|

Parte 3
   G                       G/F#
E|---7---7---7-------7---7---7---7----------|
B|---0---0---0-------0---0---0---0----------|
G|---0---0---0-0-7---7---7---7---7----------|
D|-5---5---5---5---5---5---4---4------------|
A|------------------------------------------|
E|------------------------------------------|

[Primeira Parte]

            Em
Should've stayed
            C7M(6)    G     G/F#
Were there signs I ignored? 
       Em              C7M(6)  G    G/F#
Can I help you not to hurt anymore?
         Em
We saw brilliance 
          C7M(6)      G   G/F#
When the world was asleep
            Em                C7M(6)
There are things that we can have
           D4(6)
But can't keep if they say

[Refrão]

                       Em
Who cares if one more light goes out?
         C7M(6)           G
In the sky of a million stars

It flickers, flickers
     G/F#                 Em
Who cares when someone's time runs out?
      C7M(6)          G
If a moment is all we are

We're quicker, quicker
     G/F#              Em
Who cares if one more light goes out?
      G/A  G  G/F#
Well, I   do

[Dedilhado Variação do Refrão]

Parte 1
   Em              G/A
E|---7---7---7---7--------------------------|
B|---0---0---0---0---0---0---0--------------|
G|---0---0---0---0---0---0---0--------------|
D|------------------------------------------|
A|-7---7---7---7----------------------------|
E|-----------------5---5---5----------------|

Parte 2
      G                    G/F#
E|------------------------------------------|
B|---0---0---0---0---0---0---0---0----------|
G|---0---0---0---0---0---0---0---0----------|
D|------------------------------------------|
A|------------------------------------------|
E|-3---3---3---3---3---3---2---2------------| 

[Segunda Parte]

       Em                C7M(6)
The reminders pull the floor 
           G   G/F#
From your feet
        Em                 C7M(6)
In the kitchen, one more chair 
          G       G/F#
Than you need, oh
           Em               C7M(6)
And you're angry, and you should be
          G
It's not fair
       G/F#            Em
Just 'cause you can't see it 
         C7M(6)         D4(6)
Doesn't mean it isn't there if they say

[Refrão]

                       Em
Who cares if one more light goes out?
         C7M(6)           G
In the sky of a million stars

It flickers, flickers
     G/F#                 Em
Who cares when someone's time runs out?
      C7M(6)          G
If a moment is all we are

We're quicker, quicker
     G/F#              Em
Who cares if one more light goes out?
      G/A  G  G/F#
Well, I   do

[Base Solo]

Em  C7M(6)  G  G/F#
Em  C7M(6)  D4(6)

[TAB Solo]

Parte 1
E|---------------------------10-10-10-----------------|
B|-12-12-12-12-10-10-8-8-8-8----------10-10-10--------|
G|----------------------------------------------------|
D|----------------------------------------------------|
A|----------------------------------------------------|
E|----------------------------------------------------|

Parte 2 (2x)
E|---------------------------10-10-10-----------------|
B|-8-10-10-10-12-12-10-8-8-8----------10-10-10--------|
G|----------------------------------------------------|
D|----------------------------------------------------|
A|----------------------------------------------------|
E|----------------------------------------------------|

Parte 3
E|----------------------------------------------------|
B|-8-10-10-10-12-12-8-10-10-10-12-12-12---------------|
G|----------------------------------------------------|
D|----------------------------------------------------|
A|----------------------------------------------------|
E|----------------------------------------------------|

Parte 4
E|----------------------------------------------------|
B|-10-10-10-10-10-12-13-12-10-8-8---------------------|
G|----------------------------------------------------|
D|----------------------------------------------------|
A|----------------------------------------------------|
E|----------------------------------------------------|

[Refrão Final]

                       Em
Who cares if one more light goes out?
         C7M(6)           G
In the sky of a million stars

It flickers, flickers
     G/F#                 Em
Who cares when someone's time runs out?
      C7M(6)          G
If a moment is all we are

We're quicker, quicker
     G/F#              Em
Who cares if one more light goes out?
      G/A  G
Well, I   do

Well, I do
Acordes para:

    0 comentários

      mostrar mais comentários

      Conseguiu tocar?

      13tocaram2ainda não

      Grave um vídeo tocando One More Light e mande pra gente!

      00:00 / 00:00
      outros vídeos desta música
      repetirqualidadeautomática
      Outro vídeos desta música
        00:00 / 00:00
        automática
        OK