Cifra Club

Aprenda

One Step Closer

Linkin Park

Cifra: Principal (violão e guitarra)
tom: E
Afinação: Db Ab Db Gb Bb Eb

[Intro]

E|-------------------------------------|
B|-------------------------------------|
G|-------------------------------------|
D|-------------------------------------| (2X)
A|---5--7--------------5--7------------|
E|-0---0--8-7--0-3---0---0--8-7--0-3---|
   * *  ** * *  * *   * *  ** * *  * *

E|----------------------------------------------|
B|----------------------------------------------|
G|----------------------------------------------|
D|----------------------------------------------| (2X)
A|-0-0--5-7--8-7----------0-0--5-7--8-7---------|
E|-0-0-------8-7--7-10----0-0-------8-7--7-10---|
                  
[Primeira Parte]

E|----------------------------------------------|
B|----------------------------------------------|
G|----------------------------------------------|
D|----------------------------------------------| (4X)
A|-0-0--5-7--8-7----------0-0--5-7--8-7---------|
E|-0-0-------8-7--7-10----0-0-------8-7--7-10---|

[Pré-Refrão]

E|------------------------------------------------------------|
B|------------------------------------------------------------|
G|------------------------------------------------------------|
D|-5-5---x-x---x-5-5---x-x---x-5-5--x-x---x-------------------|
A|-5-5---x-x---x-5-5---x-x---x-5-5--x-x---x-------------------|
E|-5-5---x-x---x-5-5---x-x---x-5-5--x-x---x-------------------|

[Refrão] 

E|---------------------------------------------------------------------------|
B|---------------------------------------------------------------------------|
G|---------------------------------------------------------------------------|
D|---------------------------------------------------------------------------|
A|-0-0-12-12-10-10-7-7-8-8-5-5-7-7-3-3-0-0-12-12-10-10-7-7-8-8-5-5-7-7-3-3---|
E|-0-0-12-12-10-10-7-7-8-8-5-5-7-7-3-3-0-0-12-12-10-10-7-7-8-8-5-5-7-7-3-3---|

[Verso]

E|----------------------------------------------|
B|----------------------------------------------|
G|----------------------------------------------|
D|----------------------------------------------| (4X)
A|-0-0--5-7--8-7--7-------0-0--5-7--8-7--7------|
E|-0-0-------8-7--7-10----0-0-------8-7--7-10---|

[Pré-Refrão]

E|------------------------------------------------------------|
B|------------------------------------------------------------|
G|------------------------------------------------------------|
D|-5-5---x-x---x-5-5---x-x---x-5-5--x-x---x-------------------|
A|-5-5---x-x---x-5-5---x-x---x-5-5--x-x---x-------------------|
E|-5-5---x-x---x-5-5---x-x---x-5-5--x-x---x-------------------|

[Refrão]

E|---------------------------------------------------------------------------|
B|---------------------------------------------------------------------------|
G|---------------------------------------------------------------------------|
D|---------------------------------------------------------------------------| (2X)
A|-0-0-12-12-10-10-7-7-8-8-5-5-7-7-3-3-0-0-12-12-10-10-7-7-8-8-5-5-7-7-3-3---|
E|-0-0-12-12-10-10-7-7-8-8-5-5-7-7-3-3-0-0-12-12-10-10-7-7-8-8-5-5-7-7-3-3---|
                                                                              
[Interlúdio]

E|----------------------------------------------------------------------------------------|
B|----------------------------------------------------------------------------------------|
G|----------------------------------------------------------------------------------------|
D|----------------------------------------------------------------------------------------|
Ab|1-1-1-1-1-1-1-1-0-5--7--------------5--7--------------5--7--------------5--7------------|
Db|1-1-1-1-1-1-1-1-0---0--8-7--0-3---0---0--8-7--0-3---0---0--8-7--0-3---0---0--8-7--0-3---|
                     * ** * *  * *   * * ** * *  * *   * * ** * *  * *   * * ** * *  * *
[Ponte]

E|------------------------------------------|
B|------------------------------------------|
G|------------------------------------------|
D|------------------------------------------| (4X)
Ab|1-0-3-3--1-1-0-0-6---1-0-3-3--1-1-0-0-6---|
Db|1-0-3-3--1-1-0-0-6---1-0-3-3--1-1-0-0-6---|

[Refrão]

E|--------------------------------------------------------------------------|
B|--------------------------------------------------------------------------|
G|--------------------------------------------------------------------------|
D|--------------------------------------------------------------------------| (2X)
Ab|0-0-12-12-10-10-7-7-8-8-5-5-7-7-3-3-0-0-12-12-10-10-7-7-8-8-5-5-7-7-3-3---|
Db|0-0-12-12-10-10-7-7-8-8-5-5-7-7-3-3-0-0-12-12-10-10-7-7-8-8-5-5-7-7-3-3---|
                                                                              
[Final]

E|--------------------|
B|--------------------|
G|--------------------|
D|--------------------|
Ab|1-1-1-1-1-1-1-1-0---|
Db|1-1-1-1-1-1-1-1-0---|
Composição de Linkin Park
Colaboração e revisão:
156.611 exibições
    • ½ Tom
    • A
    • Bb
    • B
    • C
    • Db
    • D
    • Eb
    • E
    • F
    • F#
    • G
    • Ab
  • Adicionar à lista

    0 comentários

    Ver todos os comentários

    Conseguiu tocar?

    10 Tocaram 1 Ainda não

    Grave um vídeo tocando One Step Closer e nos envie!

    00:00 / 00:00
    Outros vídeos desta música
    Repetir Qualidade Automático
    Outros vídeos desta música
    00:00 / 00:00
    Automático

    Cifra Club Pro

    Aproveite o Cifra Club com benefícios exclusivos e sem anúncios
    Cifra Club Pro
    Aproveite o Cifra Club com benefícios exclusivos e sem anúncios
    OK