Cifra Club

Aprenda

Papercut

Linkin Park

Cifra: Principal (violão e guitarra)
tom: G
Intro - Guitars 1 and 2
|-------------------------------------------------------------------------------------------------|
|-------------------------------------------------------------------------------------------------|
|-------------------10---\9-----9-----------------------------------------------------------------|
|-0-----0-----0-----x-----x-----x-----------5-----------5-----5-----------5-----5-----5-----5-----|
|-0-----0-----0-----8----\7-----7-----------3-----------3-----3-----------3-----3-----3-----3-----|
|-0-----0-----0-----------------------------3-----------3-----3-----------3-----3-----3-----3-----|

|-------------------------------------------------------------------------------------------------|
|-------------------------------------------------------------------------------------------------|
|-------------------10---\9-----9-----------------------------------------------------------------|
|-0-----0-----0-----x-----x-----x-----------5-----------5-----5-----------5-----5-----5-----5-----|
|-0-----0-----0-----8----\7-----7-----------3-----------3-----3-----------3-----3-----3-----3-----|
|-0-----0-----0-----------------------------3-----------3-----3-----------3-----3-----3-----3-----|

|-------------------------------------------------------------------------------------------------|
|-------------------------------------------------------------------------------------------------|
|-------------------10---\9-----9-----------------------------------------------------------------|
|-0-----0-----0-----x-----x-----x-----------5-----------5-----5-----------5-----5-----5-----5-----|
|-0-----0-----0-----8----\7-----7-----------3-----------3-----3-----------3-----3-----3-----3-----|
|-0-----0-----0-----------------------------3-----------3-----3-----------3-----3-----3-----3-----|

|-------------------------------------------------------------------------------------------------|
|-------------------------------------------------------------------------------------------------|
|-------------------10---\9-----9-----------------------------------------------------------------|
|-0-----0-----0-----x-----x-----x-----------5-----------5-----5-----------5-----------------------|
|-0-----0-----0-----8----\7-----7-----------3-----------3-----3-----------3-----------------------|
|-0-----0-----0-----------------------------3-----------3-----3-----------3-----1-----1-----3-----|
PM                                                                              .     .     .

First Verse - Guitars 1 and 2 (Palm-muted)
|-------------------------------------------------------------------------------------------------|
|-------------------------------------------------------------------------------------------------|
|-------------------------------------------------------------------------------------------------|
|-------------------------------------------------------------------------------------------------|
|-------------------------------------------------------------------------------------------------|
|-0-----0-----0-----------------8-----------8--8--8-----7-----7-----------------------------------|

|-------------------------------------------------------------------------------------------------|
|-------------------------------------------------------------------------------------------------|
|-------------------------------------------------------------------------------------------------|
|-------------------------------------------------------------------------------------------------|
|-------------------------------------------------------------------------------------------------|
|-0-----0-----0-----------------8-----------8--8--8-----7-----7-----------------------------------|

|-------------------------------------------------------------------------------------------------|
|-------------------------------------------------------------------------------------------------|
|-------------------------------------------------------------------------------------------------|
|-------------------------------------------------------------------------------------------------|
|-------------------------------------------------------------------------------------------------|
|-0-----0-----0-----------------8-----------8--8--8-----7-----7-----------------------------------|

|-------------------------------------------------------------------------------------------------|
|-------------------------------------------------------------------------------------------------|
|-------------------------------------------------------------------------------------------------|
|-------------------------------------------------------------------------------------------------|
|-------------------------------------------------------------------------------------------------|
|-0-----0-----0-----------------8-----------8--8--8-----7-----7-----------------1-----1-----3-----|

|-------------------------------------------------------------------------------------------------|
|-------------------------------------------------------------------------------------------------|
|-------------------------------------------------------------------------------------------------|
|-------------------------------------------------------------------------------------------------|
|-------------------------------------------------------------------------------------------------|
|-0-----0-----0-----------------8-----------8--8--8-----7-----7-----------------------------------|

|-------------------------------------------------------------------------------------------------|
|-------------------------------------------------------------------------------------------------|
|-------------------------------------------------------------------------------------------------|
|-------------------------------------------------------------------------------------------------|
|-------------------------------------------------------------------------------------------------|
|-0-----0-----0-----------------8-----------8--8--8-----7-----7-----------------1-----1-----3-----|

|-------------------------------------------------------------------------------------------------|
|-------------------------------------------------------------------------------------------------|
|-------------------------------------------------------------------------------------------------|
|-------------------------------------------------------------------------------------------------|
|-------------------------------------------------------------------------------------------------|
|-0-----0-----0-----------------8-----------8--8--8-----7-----7-----------------------------------|

|-------------------------------------------------------------------------------------------------|
|-------------------------------------------------------------------------------------------------|
|-------------------------------------------------------------------------------------------------|
|-------------------------------------------------------------------------------------------------|
|-------------------------------------------------------------------------------------------------|
|-0-----0-----0-----------------8-----------8--8--8-----7-----7-----------------------------------|

Chorus - Guitars 1 and 2
|-------------------------------------------------------------------------------------------------|
|-------------------------------------------------------------------------------------------------|
|-------------------10---\9-----9-----------------------------------------------------------------|
|-0-----0-----0-----x-----x-----x-----------5-----------5-----5-----------5-----5-----5-----5-----|
|-0-----0-----0-----8----\7-----7-----------3-----------3-----3-----------3-----3-----3-----3-----|
|-0-----0-----0-----------------------------3-----------3-----3-----------3-----3-----3-----3-----|

|-------------------------------------------------------------------------------------------------|
|-------------------------------------------------------------------------------------------------|
|-------------------10---\9-----9-----------------------------------------------------------------|
|-0-----0-----0-----x-----x-----x-----------5-----------5-----5-----------5-----5-----5-----5-----|
|-0-----0-----0-----8----\7-----7-----------3-----------3-----3-----------3-----3-----3-----3-----|
|-0-----0-----0-----------------------------3-----------3-----3-----------3-----3-----3-----3-----|

|-------------------------------------------------------------------------------------------------|
|-------------------------------------------------------------------------------------------------|
|-------------------10---\9-----9-----------------------------------------------------------------|
|-0-----0-----0-----x-----x-----x-----------5-----------5-----5-----------5-----5-----5-----5-----|
|-0-----0-----0-----8----\7-----7-----------3-----------3-----3-----------3-----3-----3-----3-----|
|-0-----0-----0-----------------------------3-----------3-----3-----------3-----3-----3-----3-----|

|-------------------------------------------------------------------------------------------------|
|-------------------------------------------------------------------------------------------------|
|-------------------10---\9-----9-----------------------------------------------------------------|
|-0-----0-----0-----x-----x-----x-----------5-----------5-----5-----------5-----------------------|
|-0-----0-----0-----8----\7-----7-----------3-----------3-----3-----------3-----------------------|
|-0-----0-----0-----------------------------3-----------3-----3-----------3-----1-----1-----3-----|
PM                                                                              .     .     .

2nd Verse - Guitars 1 and 2 (Palm-muted)
|-------------------------------------------------------------------------------------------------|
|-------------------------------------------------------------------------------------------------|
|-------------------------------------------------------------------------------------------------|
|-------------------------------------------------------------------------------------------------|
|-------------------------------------------------------------------------------------------------|
|-0-----0-----0-----------------8-----------8--8--8-----7-----7-----------------1-----1-----3-----|

|-------------------------------------------------------------------------------------------------|
|-------------------------------------------------------------------------------------------------|
|-------------------------------------------------------------------------------------------------|
|-------------------------------------------------------------------------------------------------|
|-------------------------------------------------------------------------------------------------|
|-0-----0-----0-----------------8-----------8--8--8-----7-----7-----------------1-----1-----3-----|

|-------------------------------------------------------------------------------------------------|
|-------------------------------------------------------------------------------------------------|
|-------------------------------------------------------------------------------------------------|
|-------------------------------------------------------------------------------------------------|
|-------------------------------------------------------------------------------------------------|
|-0-----0-----0-----------------8-----------8--8--8-----7-----7-----------------1-----1-----3-----|

|-------------------------------------------------------------------------------------------------|
|-------------------------------------------------------------------------------------------------|
|-------------------------------------------------------------------------------------------------|
|-------------------------------------------------------------------------------------------------|
|-------------------------------------------------------------------------------------------------|
|-0-----0-----0-----------------8-----------8--8--8-----7-----7-----------------1-----1-----3-----|

|-------------------------------------------------------------------------------------------------|
|-------------------------------------------------------------------------------------------------|
|-------------------------------------------------------------------------------------------------|
|-------------------------------------------------------------------------------------------------|
|-------------------------------------------------------------------------------------------------|
|-0-----0-----0-----------------8-----------8--8--8-----7-----7-----------------------------------|

|-------------------------------------------------------------------------------------------------|
|-------------------------------------------------------------------------------------------------|
|-------------------------------------------------------------------------------------------------|
|-------------------------------------------------------------------------------------------------|
|-------------------------------------------------------------------------------------------------|
|-0-----0-----0-----------------8-----------8--8--8-----7-----7-----------------1-----1-----3-----|

|-------------------------------------------------------------------------------------------------|
|-------------------------------------------------------------------------------------------------|
|-------------------------------------------------------------------------------------------------|
|-------------------------------------------------------------------------------------------------|
|-------------------------------------------------------------------------------------------------|
|-0-----0-----0-----------------8-----------8--8--8-----7-----7-----------------1-----1-----3-----|

|-------------------------------------------------------------------------------------------------|
|-------------------------------------------------------------------------------------------------|
|-------------------------------------------------------------------------------------------------|
|-------------------------------------------------------------------------------------------------|
|-------------------------------------------------------------------------------------------------|
|-0-----0-----0-----------------8-----------8--8--8-----7-----7-----------------------------------|

Chorus - Guitars 1 and 2
|-------------------------------------------------------------------------------------------------|
|-------------------------------------------------------------------------------------------------|
|-------------------10---\9-----9-----------------------------------------------------------------|
|-0-----0-----0-----x-----x-----x-----------5-----------5-----5-----------5-----5-----5-----5-----|
|-0-----0-----0-----8----\7-----7-----------3-----------3-----3-----------3-----3-----3-----3-----|
|-0-----0-----0-----------------------------3-----------3-----3-----------3-----3-----3-----3-----|

|-------------------------------------------------------------------------------------------------|
|-------------------------------------------------------------------------------------------------|
|-------------------10---\9-----9-----------------------------------------------------------------|
|-0-----0-----0-----x-----x-----x-----------5-----------5-----5-----------5-----5-----5-----5-----|
|-0-----0-----0-----8----\7-----7-----------3-----------3-----3-----------3-----3-----3-----3-----|
|-0-----0-----0-----------------------------3-----------3-----3-----------3-----3-----3-----3-----|

|-------------------------------------------------------------------------------------------------|
|-------------------------------------------------------------------------------------------------|
|-------------------10---\9-----9-----------------------------------------------------------------|
|-0-----0-----0-----x-----x-----x-----------5-----------5-----5-----------5-----5-----5-----5-----|
|-0-----0-----0-----8----\7-----7-----------3-----------3-----3-----------3-----3-----3-----3-----|
|-0-----0-----0-----------------------------3-----------3-----3-----------3-----3-----3-----3-----|

|-------------------------------------------------------------------------------------------------|
|-------------------------------------------------------------------------------------------------|
|-------------------10---\9-----9-----------------------------------------------------------------|
|-0-----0-----0-----x-----x-----x-----------5-----------5-----5-----------5-----5-----5-----5-----|
|-0-----0-----0-----8----\7-----7-----------3-----------3-----3-----------3-----3-----3-----3-----|
|-0-----0-----0-----------------------------3-----------3-----3-----------3-----3-----3-----3-----|

|-------------------------------------------------------------------------------------------------|
|-------------------------------------------------------------------------------------------------|
|-------------------10---\9-----9-----------------------------------------------------------------|
|-0-----0-----0-----x-----x-----x-----------5-----------5-----5-----------5-----5-----5-----5-----|
|-0-----0-----0-----8----\7-----7-----------3-----------3-----3-----------3-----3-----3-----3-----|
|-0-----0-----0-----------------------------3-----------3-----3-----------3-----3-----3-----3-----|

|-------------------------------------------------------------------------------------------------|
|-------------------------------------------------------------------------------------------------|
|-------------------10---\9-----9-----------------------------------------------------------------|
|-0-----0-----0-----x-----x-----x-----------5-----------5-----5-----------5-----5-----5-----5-----|
|-0-----0-----0-----8----\7-----7-----------3-----------3-----3-----------3-----3-----3-----3-----|
|-0-----0-----0-----------------------------3-----------3-----3-----------3-----3-----3-----3-----|

|-------------------------------------------------------------------------------------------------|
|-------------------------------------------------------------------------------------------------|
|-------------------10---\9-----9-----------------------------------------------------------------|
|-0-----0-----0-----x-----x-----x-----------5-----------5-----5-----------5-----5-----5-----5-----|
|-0-----0-----0-----8----\7-----7-----------3-----------3-----3-----------3-----3-----3-----3-----|
|-0-----0-----0-----------------------------3-----------3-----3-----------3-----3-----3-----3-----|

|-------------------------------------------------------------------------------------------------|
|-------------------------------------------------------------------------------------------------|
|-------------------10---\9-----9-----------------------------------------------------------------|
|-0-----0-----0-----x-----x-----x-----------5-----------5-----5-----------5-----------------------|
|-0-----0-----0-----8----\7-----7-----------3-----------3-----3-----------3-----------------------|
|-0-----0-----0-----------------------------3-----------3-----3-----------3-----1-----1-----3-----|
PM                                                                              .     .     .

Breakdown - Guitars 1 and 2 (Palm-muted)
|-------------------------------------------------------------------------------------------------|
|-------------------------------------------------------------------------------------------------|
|-------------------------------------------------------------------------------------------------|
|-------------------------------------------------------------------------------------------------|
|-------------------------------------------------------------------------------------------------|
|-0-----0-----0-----------------------------------------------------------------1-----1-----3-----|

|-------------------------------------------------------------------------------------------------|
|-------------------------------------------------------------------------------------------------|
|-------------------------------------------------------------------------------------------------|
|-------------------------------------------------------------------------------------------------|
|-------------------------------------------------------------------------------------------------|
|-0-----0-----0-----------------------------------------------------------------1-----1-----3-----|

|-------------------------------------------------------------------------------------------------|
|-------------------------------------------------------------------------------------------------|
|-------------------------------------------------------------------------------------------------|
|-------------------------------------------------------------------------------------------------|
|-------------------------------------------------------------------------------------------------|
|-0-----0-----0-----------------------------------------------------------------1-----1-----3-----|

|--------------------------------------------------------------------------------------------------|
|--------------------------------------------------------------------------------------------------|
|--------------------------------------------------------------------------------------------------|
|--------------------------------------------------0-----0-----0-----0-----0-----0-----0-----0-----|
|--------------------------0-----0-----0-----0-----0-----0-----0-----0-----0-----0-----0-----0-----|
|--0-----0-----0-----0-----0-----0-----0-----0-----0-----0-----0-----0-----0-----0-----0-----0-----|
PM .     .     .     .     .     .     .     .

Bridge - Guitars 1 and 2
|-------------------------------------------------------------------------------------------------|
|-------------------------------------------------------------------------------------------------|
|-------------------------------------------------------------------------------------------------|
|-10----10----10----------x-----10----x-----10----10----12----12----------x-----12----x-----7-----|
|-8-----8-----8-----------x-----8-----x-----8-----8-----10----10----------x-----10----x-----5-----|
|-8-----8-----8-----------x-----8-----x-----8-----8-----10----10----------x-----10----x-----5-----|

|-------------------------------------------------------------------------------------------------|
|-------------------------------------------------------------------------------------------------|
|-------------------------------------------------------------------------------------------------|
|-7-----7-----7-----------x-----7-----x-----7-----7-----7-----7-----------x-----7-----x-----10----|
|-5-----5-----5-----------x-----5-----x-----5-----5-----5-----5-----------x-----5-----x-----8-----|
|-5-----5-----5-----------x-----5-----x-----5-----5-----5-----5-----------x-----5-----x-----8-----|

|-------------------------------------------------------------------------------------------------|
|-------------------------------------------------------------------------------------------------|
|-------------------------------------------------------------------------------------------------|
|-10----10----10----------x-----10----x-----10----10----12----12----------x-----12----x-----7-----|
|-8-----8-----8-----------x-----8-----x-----8-----8-----10----10----------x-----10----x-----5-----|
|-8-----8-----8-----------x-----8-----x-----8-----8-----10----10----------x-----10----x-----5-----|

|-------------------------------------------------------------------------------------------------|
|-------------------------------------------------------------------------------------------------|
|-------------------------------------------------------------------------------------------------|
|-7-----7-----7-----------x-----7-----x-----7-----7-----7-----7-----------x-----7-----x-----10----|
|-5-----5-----5-----------x-----5-----x-----5-----5-----5-----5-----------x-----5-----x-----8-----|
|-5-----5-----5-----------x-----5-----x-----5-----5-----5-----5-----------x-----5-----x-----8-----|

|-------------------------------------------------------------------------------------------------|
|-------------------------------------------------------------------------------------------------|
|-------------------------------------------------------------------------------------------------|
|-10----10----10----------x-----10----x-----10----10----12----12----------x-----12----x-----7-----|
|-8-----8-----8-----------x-----8-----x-----8-----8-----10----10----------x-----10----x-----5-----|
|-8-----8-----8-----------x-----8-----x-----8-----8-----10----10----------x-----10----x-----5-----|

|-------------------------------------------------------------------------------------------------|
|-------------------------------------------------------------------------------------------------|
|-------------------------------------------------------------------------------------------------|
|-7-----7-----7-----------x-----7-----x-----7-----7-----7-----7-----------x-----7-----x-----10----|
|-5-----5-----5-----------x-----5-----x-----5-----5-----5-----5-----------x-----5-----x-----8-----|
|-5-----5-----5-----------x-----5-----x-----5-----5-----5-----5-----------x-----5-----x-----8-----|

|-------------------------------------------------------------------------------------------------|
|-------------------------------------------------------------------------------------------------|
|-------------------------------------------------------------------------------------------------|
|-10----10----10----------x-----10----x-----10----10----12----12----------x-----12----x-----7-----|
|-8-----8-----8-----------x-----8-----x-----8-----8-----10----10----------x-----10----x-----5-----|
|-8-----8-----8-----------x-----8-----x-----8-----8-----10----10----------x-----10----x-----5-----|

|-------------------------------------------------------------------------------------------------|
|-------------------------------------------------------------------------------------------------|
|-------------------------------------------------------------------------------------------------|
|-7-----7-----7-----------x-----7-----x-----7-----7-----7-----7-----------x-----7-----x-----10----|
|-5-----5-----5-----------x-----5-----x-----5-----5-----5-----5-----------x-----5-----x-----8-----|
|-5-----5-----5-----------x-----5-----x-----5-----5-----5-----5-----------x-----5-----x-----8-----|

Outro - Guitars 1 and 2
|-------------------------------------------------------------------------------------------------|
|-------------------------------------------------------------------------------------------------|
|-------------------------------------------------------------------------------------------------|
|-10----10----10----------x-----10----x-----10----10----12----12----------x-----12----x-----7-----|
|-8-----8-----8-----------x-----8-----x-----8-----8-----10----10----------x-----10----x-----5-----|
|-8-----8-----8-----------x-----8-----x-----8-----8-----10----10----------x-----10----x-----5-----|

|-------------------------------------------------------------------------------------------------|
|-------------------------------------------------------------------------------------------------|
|-------------------------------------------------------------------------------------------------|
|-7-----7-----7-----------x-----7-----x-----7-----7-----7-----7-----------x-----7-----x-----10----|
|-5-----5-----5-----------x-----5-----x-----5-----5-----5-----5-----------x-----5-----x-----8-----|
|-5-----5-----5-----------x-----5-----x-----5-----5-----5-----5-----------x-----5-----x-----8-----|

|-------------------------------------------------------------------------------------------------|
|-------------------------------------------------------------------------------------------------|
|-------------------------------------------------------------------------------------------------|
|-10----10----10----------x-----10----x-----10----10----12----12----------x-----12----x-----7-----|
|-8-----8-----8-----------x-----8-----x-----8-----8-----10----10----------x-----10----x-----5-----|
|-8-----8-----8-----------x-----8-----x-----8-----8-----10----10----------x-----10----x-----5-----|

|-------------------------------------------------------------------------------------------------|
|-------------------------------------------------------------------------------------------------|
|-------------------------------------------------------------------------------------------------|
|-7-----7-----7-----------x-----7-----x-----7-----7-----7-----7-----------x-----7-----x-----10----|
|-5-----5-----5-----------x-----5-----x-----5-----5-----5-----5-----------x-----5-----x-----8-----|
|-5-----5-----5-----------x-----5-----x-----5-----5-----5-----5-----------x-----5-----x-----8-----|

|-------------------------------------------------------------------------------------------------|
|-------------------------------------------------------------------------------------------------|
|-------------------------------------------------------------------------------------------------|
|-10----10----10----------x-----10----x-----10----10----12----12----------x-----12----x-----7-----|
|-8-----8-----8-----------x-----8-----x-----8-----8-----10----10----------x-----10----x-----5-----|
|-8-----8-----8-----------x-----8-----x-----8-----8-----10----10----------x-----10----x-----5-----|

|-------------------------------------------------------------------------------------------------|
|-------------------------------------------------------------------------------------------------|
|-------------------------------------------------------------------------------------------------|
|-7-----7-----7-----------x-----7-----x-----7-----7-----7-----7-----------x-----7-----x-----10----|
|-5-----5-----5-----------x-----5-----x-----5-----5-----5-----5-----------x-----5-----x-----8-----|
|-5-----5-----5-----------x-----5-----x-----5-----5-----5-----5-----------x-----5-----x-----8-----|

|-------------------------------------------------------------------------------------------------|
|-------------------------------------------------------------------------------------------------|
|-------------------------------------------------------------------------------------------------|
|-10----10----10----------x-----10----x-----10----10----12----12----------x-----12----12----10----|
|-8-----8-----8-----------x-----8-----x-----8-----8-----10----10----------x-----10----10----8-----|
|-8-----8-----8-----------x-----8-----x-----8-----8-----10----10----------x-----10----10----8-----|

|-------------------------------------------------------------------------------------------------|
|-------------------------------------------------------------------------------------------------|
|-------------------------------------------------------------------------------------------------|
|-10----10----10----------x-----10----x-----10----10----12----12----------x-----12----12----10----|
|-8-----8-----8-----------x-----8-----x-----8-----8-----10----10----------x-----10----10----8-----|
|-8-----8-----8-----------x-----8-----x-----8-----8-----10----10----------x-----10----10----8-----|

|-------------------------------------------------------------------------------------------------|
|-------------------------------------------------------------------------------------------------|
|-------------------------------------------------------------------------------------------------|
|-10----10----10----------x-----10----x-----10----10----12----12----------12----12----x-----7-----|
|-8-----8-----8-----------x-----8-----x-----8-----8-----10----10----------10----10----x-----5-----|
|-8-----8-----8-----------x-----8-----x-----8-----8-----10----10----------10----10----x-----5-----|

|-------------------------------------------------------------------------------------------------|
|-------------------------------------------------------------------------------------------------|
|-------------------------------------------------------------------------------------------------|
|-7-----7-----7-----------x-----7-----x-----7-----7-----7-----7-----------x-----------------------|
|-5-----5-----5-----------x-----5-----x-----5-----5-----5-----5-----------x-----1-----1-----3-----|
|-5-----5-----5-----------x-----5-----x-----5-----5-----5-----5-----------x-----1-----1-----3-----|
PM                                                                              .     .     .

Ending - Guitars 1 and 2 (Palm-muted)
|-------------------------------------------------------------------------------------------------|
|-------------------------------------------------------------------------------------------------|
|-------------------------------------------------------------------------------------------------|
|-------------------------------------------------------------------------------------------------|
|-0-----0-----0-----------------------------------------------------------------------------------|
|-0-----0-----0-----------------------------------------------------------------------------------|
Composição de Brad Delson / Chester Bennington / Dave Farrell / Joe Hahn / Mike Shinoda / Rob Bourdon
Colaboração e revisão:
  • Douglas Felipe
  • Juninho Aragão
118.075 exibições
    • ½ Tom
    • A
    • Bb
    • B
    • C
    • Db
    • D
    • Eb
    • E
    • F
    • F#
    • G
    • Ab
  • Adicionar à lista

    0 comentários

    Ver todos os comentários

    Conseguiu tocar?

    11 Tocaram 1 Ainda não

    Grave um vídeo tocando Papercut e nos envie!

    00:00 / 00:00
    Outros vídeos desta música
    Repetir Qualidade Automático
    Outros vídeos desta música
    00:00 / 00:00
    Automático

    Cifra Club Pro

    Aproveite o Cifra Club com benefícios exclusivos e sem anúncios
    Cifra Club Pro
    Aproveite o Cifra Club com benefícios exclusivos e sem anúncios
    OK