Cifra Club

Pushing Me Away

Linkin Park

Cifra: Principal (violão e guitarra)
tom: E
Intro - Guitar 1
|-12*---------------------------------------------------------------12*---------------------------|
|-------------------12*------------------------------------7*-------------------------12*---------|
|----------7*-------------------------------------5*----------------------------------------------|
|-------------------------------------------------------------------------------------------------|
|-------------------------------------7*----------------------------------------------------------|
|-------------------------------------------------------------------------------------------------|

|-------------------------------------------------------------------------------------------------|
|-------------------12*---------------------------------------------7*----------------------------|
|----------7*-------------------------------------12*---------------------------------7*----------|
|-7*-------------------------------------------------------7*-------------------------------------|
|-------------------------------------7*----------------------------------------------------------|
|-------------------------------------------------------------------------------------------------|

Heavy Intro
|-------------------------------------------------------------------------------------------------|
|-------------------------------------------------------------------------------------------------|
|-11-11-11-11-11-11-11-11-11-11-11-11-11-11-11-11-12-12-12-12-12-12-12-12-12-12-12-12-19-19-19-19-|
|-x--x--x--x--x--x--x--x--x--x--x--x--x--x--x--x--x--x--x--x--x--x--x--x--x--x--x--x--x--x--x--x--|
|-9--9--9--9--9--9--9--9--9--9--9--9--9--9--9--9--10-10-10-10-10-10-10-10-10-10-10-10-17-17-17-17-|
|-------------------------------------------------------------------------------------------------|
|Guitar 2
|
|-------------------------------------------------------------------------------------------------|
|-------------------------------------------------------------------------------------------------|
|-------------------------------------------------------------------------------------------------|
|-2-----------2-----2--2-----2-----2--2-----10-10-10----------10----10-10----10----10-10----5--5--|
|-2-----------2-----2--2-----2-----2--2-----10-10-10----------10----10-10----10----10-10----5--5--|
|-2-----------2-----2--2-----2-----2--2-----10-10-10----------10----10-10----10----10-10----5--5--|
|Guitars 3 and 4

|-------------------------------------------------------------------------------------------------|
|-------------------------------------------------------------------------------------------------|
|-16-16-16-16-16-16-16-16-16-16-16-16-16-16-16-16-16-16-16-16-16-16-16-16-16-16-16-16-16-16-16-16-|
|-x--x--x--x--x--x--x--x--x--x--x--x--x--x--x--x--x--x--x--x--x--x--x--x--x--x--x--x--x--x--x--x--|
|-14-14-14-14-14-14-14-14-14-14-14-14-14-14-14-14-14-14-14-14-14-14-14-14-14-14-14-14-14-14-14-14-|
|-------------------------------------------------------------------------------------------------|
|Guitar 2
|
|-------------------------------------------------------------------------------------------------|
|-------------------------------------------------------------------------------------------------|
|-------------------------------------------------------------------------------------------------|
|-5-----------5-----5--5-----5-----5--5-----7--7--7-----------7-----9--9-----9-----9--0-----0--0--|
|-5-----------5-----5--5-----5-----5--5-----7--7--7-----------7-----9--9-----9-----9--0-----0--0--|
|-5-----------5-----5--5-----5-----5--5-----7--7--7-----------7-----9--9-----9-----9--0-----0--0--|
|Guitars 3 and 4

First Verse - Guitar 1
|-12*---------------------------------------------------------------12*---------------------------|
|-------------------12*------------------------------------7*-------------------------12*---------|
|----------7*-------------------------------------5*----------------------------------------------|
|-------------------------------------------------------------------------------------------------|
|-------------------------------------7*----------------------------------------------------------|
|-------------------------------------------------------------------------------------------------|

|-------------------------------------------------------------------------------------------------|
|-------------------12*---------------------------------------------7*----------------------------|
|----------7*-------------------------------------12*---------------------------------7*----------|
|-7*-------------------------------------------------------7*-------------------------------------|
|-------------------------------------7*----------------------------------------------------------|
|-------------------------------------------------------------------------------------------------|

|-12*---------------------------------------------------------------12*---------------------------|
|-------------------12*------------------------------------7*-------------------------12*---------|
|----------7*-------------------------------------5*----------------------------------------------|
|-------------------------------------------------------------------------------------------------|
|-------------------------------------7*----------------------------------------------------------|
|-------------------------------------------------------------------------------------------------|

|-------------------------------------------------------------------------------------------------|
|-------------------12*---------------------------------------------7*----------------------------|
|----------7*-------------------------------------12*---------------------------------7*----------|
|-7*-------------------------------------------------------7*-------------------------------------|
|-------------------------------------7*----------------------------------------------------------|
|-------------------------------------------------------------------------------------------------|

|-12*---------------------------------------------------------------12*---------------------------|
|-------------------12*------------------------------------7*-------------------------12*---------|
|----------7*-------------------------------------5*----------------------------------------------|
|-------------------------------------------------------------------------------------------------|
|-------------------------------------7*----------------------------------------------------------|
|-------------------------------------------------------------------------------------------------|

|-------------------------------------------------------------------------------------------------|
|-------------------12*---------------------------------------------7*----------------------------|
|----------7*-------------------------------------12*---------------------------------7*----------|
|-7*-------------------------------------------------------7*-------------------------------------|
|-------------------------------------7*----------------------------------------------------------|
|-------------------------------------------------------------------------------------------------|

|-12*---------------------------------------------------------------12*---------------------------|
|-------------------12*------------------------------------7*-------------------------12*---------|
|----------7*-------------------------------------5*----------------------------------------------|
|-------------------------------------------------------------------------------------------------|
|-------------------------------------7*----------------------------------------------------------|
|-------------------------------------------------------------------------------------------------|

|-------------------------------------------------------------------------------------------------|
|-------------------12*---------------------------------------------7*----------------------------|
|----------7*-------------------------------------12*---------------------------------7*----------|
|-7*-------------------------------------------------------7*-------------------------------------|
|-------------------------------------7*----------------------------------------------------------|
|-------------------------------------------------------------------------------------------------|

Chorus
|-------------------------------------------------------------------------------------------------|
|-------------------------------------------------------------------------------------------------|
|-11-11-11-11-11-11-11-11-11-11-11-11-11-11-11-11-12-12-12-12-12-12-12-12-12-12-12-12-19-19-19-19-|
|-x--x--x--x--x--x--x--x--x--x--x--x--x--x--x--x--x--x--x--x--x--x--x--x--x--x--x--x--x--x--x--x--|
|-9--9--9--9--9--9--9--9--9--9--9--9--9--9--9--9--10-10-10-10-10-10-10-10-10-10-10-10-17-17-17-17-|
|-------------------------------------------------------------------------------------------------|
|Guitar 2
|
|-------------------------------------------------------------------------------------------------|
|-------------------------------------------------------------------------------------------------|
|-------------------------------------------------------------------------------------------------|
|-2-----------2-----2--2-----2-----2--2-----10-10-10----------10----10-10----10----10-10----5--5--|
|-2-----------2-----2--2-----2-----2--2-----10-10-10----------10----10-10----10----10-10----5--5--|
|-2-----------2-----2--2-----2-----2--2-----10-10-10----------10----10-10----10----10-10----5--5--|
|Guitars 3 and 4

|-------------------------------------------------------------------------------------------------|
|-------------------------------------------------------------------------------------------------|
|-16-16-16-16-16-16-16-16-16-16-16-16-16-16-16-16-16-16-16-16-16-16-16-16-16-16-16-16-16-16-16-16-|
|-x--x--x--x--x--x--x--x--x--x--x--x--x--x--x--x--x--x--x--x--x--x--x--x--x--x--x--x--x--x--x--x--|
|-14-14-14-14-14-14-14-14-14-14-14-14-14-14-14-14-14-14-14-14-14-14-14-14-14-14-14-14-14-14-14-14-|
|-------------------------------------------------------------------------------------------------|
|Guitar 2
|
|-------------------------------------------------------------------------------------------------|
|-------------------------------------------------------------------------------------------------|
|-------------------------------------------------------------------------------------------------|
|-5-----------5-----5--5-----5-----5--5-----7--7--7-----------7-----9--9-----9-----9--0-----0--0--|
|-5-----------5-----5--5-----5-----5--5-----7--7--7-----------7-----9--9-----9-----9--0-----0--0--|
|-5-----------5-----5--5-----5-----5--5-----7--7--7-----------7-----9--9-----9-----9--0-----0--0--|
|Guitars 3 and 4

|-------------------------------------------------------------------------------------------------|
|-------------------------------------------------------------------------------------------------|
|-11-11-11-11-11-11-11-11-11-11-11-11-11-11-11-11-12-12-12-12-12-12-12-12-12-12-12-12-19-19-19-19-|
|-x--x--x--x--x--x--x--x--x--x--x--x--x--x--x--x--x--x--x--x--x--x--x--x--x--x--x--x--x--x--x--x--|
|-9--9--9--9--9--9--9--9--9--9--9--9--9--9--9--9--10-10-10-10-10-10-10-10-10-10-10-10-17-17-17-17-|
|-------------------------------------------------------------------------------------------------|
|Guitar 2
|
|-------------------------------------------------------------------------------------------------|
|-------------------------------------------------------------------------------------------------|
|-------------------------------------------------------------------------------------------------|
|-2-----------2-----2--2-----2-----2--2-----10-10-10----------10----10-10----10----10-10----5--5--|
|-2-----------2-----2--2-----2-----2--2-----10-10-10----------10----10-10----10----10-10----5--5--|
|-2-----------2-----2--2-----2-----2--2-----10-10-10----------10----10-10----10----10-10----5--5--|
|Guitars 3 and 4

|-------------------------------------------------------------------------------------------------|
|-------------------------------------------------------------------------------------------------|
|-16-16-16-16-16-16-16-16-16-16-16-16-16-16-16-16-16-16-16-16-16-16-16-16-16-16-16-16-16-16-16-16-|
|-x--x--x--x--x--x--x--x--x--x--x--x--x--x--x--x--x--x--x--x--x--x--x--x--x--x--x--x--x--x--x--x--|
|-14-14-14-14-14-14-14-14-14-14-14-14-14-14-14-14-14-14-14-14-14-14-14-14-14-14-14-14-14-14-14-14-|
|-------------------------------------------------------------------------------------------------|
|Guitar 2
|
|-------------------------------------------------------------------------------------------------|
|-------------------------------------------------------------------------------------------------|
|-------------------------------------------------------------------------------------------------|
|-5-----------5-----5--5-----5-----5--5-----7--7--7-----------7-----9--9-----9-----9--0-----0--0--|
|-5-----------5-----5--5-----5-----5--5-----7--7--7-----------7-----9--9-----9-----9--0-----0--0--|
|-5-----------5-----5--5-----5-----5--5-----7--7--7-----------7-----9--9-----9-----9--0-----0--0--|
|Guitars 3 and 4

2nd Verse - Guitar 1
|-12*---------------------------------------------------------------12*---------------------------|
|-------------------12*------------------------------------7*-------------------------12*---------|
|----------7*-------------------------------------5*----------------------------------------------|
|-------------------------------------------------------------------------------------------------|
|-------------------------------------7*----------------------------------------------------------|
|-------------------------------------------------------------------------------------------------|

|-------------------------------------------------------------------------------------------------|
|-------------------12*---------------------------------------------7*----------------------------|
|----------7*-------------------------------------12*---------------------------------7*----------|
|-7*-------------------------------------------------------7*-------------------------------------|
|-------------------------------------7*----------------------------------------------------------|
|-------------------------------------------------------------------------------------------------|

|-12*---------------------------------------------------------------12*---------------------------|
|-------------------12*------------------------------------7*-------------------------12*---------|
|----------7*-------------------------------------5*----------------------------------------------|
|-------------------------------------------------------------------------------------------------|
|-------------------------------------7*----------------------------------------------------------|
|-------------------------------------------------------------------------------------------------|

|-------------------------------------------------------------------------------------------------|
|-------------------12*---------------------------------------------7*----------------------------|
|----------7*-------------------------------------12*---------------------------------7*----------|
|-7*-------------------------------------------------------7*-------------------------------------|
|-------------------------------------7*----------------------------------------------------------|
|-------------------------------------------------------------------------------------------------|

|-12*---------------------------------------------------------------12*---------------------------|
|-------------------12*------------------------------------7*-------------------------12*---------|
|----------7*-------------------------------------5*----------------------------------------------|
|-------------------------------------------------------------------------------------------------|
|-------------------------------------7*----------------------------------------------------------|
|-------------------------------------------------------------------------------------------------|

|-------------------------------------------------------------------------------------------------|
|-------------------12*---------------------------------------------7*----------------------------|
|----------7*-------------------------------------12*---------------------------------7*----------|
|-7*-------------------------------------------------------7*-------------------------------------|
|-------------------------------------7*----------------------------------------------------------|
|-------------------------------------------------------------------------------------------------|

|-12*---------------------------------------------------------------12*---------------------------|
|-------------------12*------------------------------------7*-------------------------12*---------|
|----------7*-------------------------------------5*----------------------------------------------|
|-------------------------------------------------------------------------------------------------|
|-------------------------------------7*----------------------------------------------------------|
|-------------------------------------------------------------------------------------------------|

|-------------------------------------------------------------------------------------------------|
|-------------------12*---------------------------------------------7*----------------------------|
|----------7*-------------------------------------12*---------------------------------7*----------|
|-7*-------------------------------------------------------7*-------------------------------------|
|-------------------------------------7*----------------------------------------------------------|
|-------------------------------------------------------------------------------------------------|

Chorus
|-------------------------------------------------------------------------------------------------|
|-------------------------------------------------------------------------------------------------|
|-11-11-11-11-11-11-11-11-11-11-11-11-11-11-11-11-12-12-12-12-12-12-12-12-12-12-12-12-19-19-19-19-|
|-x--x--x--x--x--x--x--x--x--x--x--x--x--x--x--x--x--x--x--x--x--x--x--x--x--x--x--x--x--x--x--x--|
|-9--9--9--9--9--9--9--9--9--9--9--9--9--9--9--9--10-10-10-10-10-10-10-10-10-10-10-10-17-17-17-17-|
|-------------------------------------------------------------------------------------------------|
|Guitar 2
|
|-------------------------------------------------------------------------------------------------|
|-------------------------------------------------------------------------------------------------|
|-------------------------------------------------------------------------------------------------|
|-2-----------2-----2--2-----2-----2--2-----10-10-10----------10----10-10----10----10-10----5--5--|
|-2-----------2-----2--2-----2-----2--2-----10-10-10----------10----10-10----10----10-10----5--5--|
|-2-----------2-----2--2-----2-----2--2-----10-10-10----------10----10-10----10----10-10----5--5--|
|Guitars 3 and 4

|-------------------------------------------------------------------------------------------------|
|-------------------------------------------------------------------------------------------------|
|-16-16-16-16-16-16-16-16-16-16-16-16-16-16-16-16-16-16-16-16-16-16-16-16-16-16-16-16-16-16-16-16-|
|-x--x--x--x--x--x--x--x--x--x--x--x--x--x--x--x--x--x--x--x--x--x--x--x--x--x--x--x--x--x--x--x--|
|-14-14-14-14-14-14-14-14-14-14-14-14-14-14-14-14-14-14-14-14-14-14-14-14-14-14-14-14-14-14-14-14-|
|-------------------------------------------------------------------------------------------------|
|Guitar 2
|
|-------------------------------------------------------------------------------------------------|
|-------------------------------------------------------------------------------------------------|
|-------------------------------------------------------------------------------------------------|
|-5-----------5-----5--5-----5-----5--5-----7--7--7-----------7-----9--9-----9-----9--0-----0--0--|
|-5-----------5-----5--5-----5-----5--5-----7--7--7-----------7-----9--9-----9-----9--0-----0--0--|
|-5-----------5-----5--5-----5-----5--5-----7--7--7-----------7-----9--9-----9-----9--0-----0--0--|
|Guitars 3 and 4

|-------------------------------------------------------------------------------------------------|
|-------------------------------------------------------------------------------------------------|
|-11-11-11-11-11-11-11-11-11-11-11-11-11-11-11-11-12-12-12-12-12-12-12-12-12-12-12-12-19-19-19-19-|
|-x--x--x--x--x--x--x--x--x--x--x--x--x--x--x--x--x--x--x--x--x--x--x--x--x--x--x--x--x--x--x--x--|
|-9--9--9--9--9--9--9--9--9--9--9--9--9--9--9--9--10-10-10-10-10-10-10-10-10-10-10-10-17-17-17-17-|
|-------------------------------------------------------------------------------------------------|
|Guitar 2
|
|-------------------------------------------------------------------------------------------------|
|-------------------------------------------------------------------------------------------------|
|-------------------------------------------------------------------------------------------------|
|-2-----------2-----2--2-----2-----2--2-----10-10-10----------10----10-10----10----10-10----5--5--|
|-2-----------2-----2--2-----2-----2--2-----10-10-10----------10----10-10----10----10-10----5--5--|
|-2-----------2-----2--2-----2-----2--2-----10-10-10----------10----10-10----10----10-10----5--5--|
|Guitars 3 and 4

|-------------------------------------------------------------------------------------------------|
|-------------------------------------------------------------------------------------------------|
|-16-16-16-16-16-16-16-16-16-16-16-16-16-16-16-16-16-16-16-16-16-16-16-16-16-16-16-16-16-16-16-16-|
|-x--x--x--x--x--x--x--x--x--x--x--x--x--x--x--x--x--x--x--x--x--x--x--x--x--x--x--x--x--x--x--x--|
|-14-14-14-14-14-14-14-14-14-14-14-14-14-14-14-14-14-14-14-14-14-14-14-14-14-14-14-14-14-14-14-14-|
|-------------------------------------------------------------------------------------------------|
|Guitar 2
|
|-------------------------------------------------------------------------------------------------|
|-------------------------------------------------------------------------------------------------|
|-------------------------------------------------------------------------------------------------|
|-5-----------5-----5--5-----5-----5--5-----7--7--7-----------7-----9--9-----9-----9--12----12-12-|
|-5-----------5-----5--5-----5-----5--5-----7--7--7-----------7-----9--9-----9-----9--12----12-12-|
|-5-----------5-----5--5-----5-----5--5-----7--7--7-----------7-----9--9-----9-----9--12----12-12-|
|Guitars 3 and 4

Bridge
|-------------------------------------------------------------------------------------------------|
|-------------------------------------------------------------------------------------------------|
|-11-11-11-11-11-11-11-11-11-11-11-11-11-11-11-11-12-12-12-12-12-12-12-12-12-12-12-12-19-19-19-19-|
|-x--x--x--x--x--x--x--x--x--x--x--x--x--x--x--x--x--x--x--x--x--x--x--x--x--x--x--x--x--x--x--x--|
|-9--9--9--9--9--9--9--9--9--9--9--9--9--9--9--9--10-10-10-10-10-10-10-10-10-10-10-10-17-17-17-17-|
|-------------------------------------------------------------------------------------------------|
|Guitar 2
|
|-------------------------------------------------------------------------------------------------|
|-------------------------------------------------------------------------------------------------|
|-------------------------------------------------------------------------------------------------|
|-12----------12----12-12----12----12-12----12-12-12----------12----12-12----12----12-12----7--7--|
|-10----------10----10-10----10----10-10----12-12-12----------12----12-12----12----12-12----7--7--|
|-10----------10----10-10----10----10-10----12-12-12----------12----12-12----12----12-12----7--7--|
|Guitars 3 and 4

|-------------------------------------------------------------------------------------------------|
|-------------------------------------------------------------------------------------------------|
|-16-16-16-16-16-16-16-16-16-16-16-16-16-16-16-16-16-16-16-16-16-16-16-16-16-16-16-16-16-16-16-16-|
|-x--x--x--x--x--x--x--x--x--x--x--x--x--x--x--x--x--x--x--x--x--x--x--x--x--x--x--x--x--x--x--x--|
|-14-14-14-14-14-14-14-14-14-14-14-14-14-14-14-14-14-14-14-14-14-14-14-14-14-14-14-14-14-14-14-14-|
|-------------------------------------------------------------------------------------------------|
|Guitar 2
|
|-------------------------------------------------------------------------------------------------|
|-------------------------------------------------------------------------------------------------|
|-------------------------------------------------------------------------------------------------|
|-7-----------7-----7--7-----7-----7--7-----4--4--4-----------4-----5--5-----5-----5--9-----9--9--|
|-7-----------7-----7--7-----7-----7--7-----4--4--4-----------4-----5--5-----5-----5--9-----9--9--|
|-7-----------7-----7--7-----7-----7--7-----4--4--4-----------4-----5--5-----5-----5--9-----9--9--|
|Guitars 3 and 4

|-------------------------------------------------------------------------------------------------|
|-------------------------------------------------------------------------------------------------|
|-11-11-11-11-11-11-11-11-11-11-11-11-11-11-11-11-12-12-12-12-12-12-12-12-12-12-12-12-19-19-19-19-|
|-x--x--x--x--x--x--x--x--x--x--x--x--x--x--x--x--x--x--x--x--x--x--x--x--x--x--x--x--x--x--x--x--|
|-9--9--9--9--9--9--9--9--9--9--9--9--9--9--9--9--10-10-10-10-10-10-10-10-10-10-10-10-17-17-17-17-|
|-------------------------------------------------------------------------------------------------|
|Guitar 2
|
|-------------------------------------------------------------------------------------------------|
|-------------------------------------------------------------------------------------------------|
|-------------------------------------------------------------------------------------------------|
|-12----------12----12-12----12----12-12----12-12-12----------12----12-12----12----12-12----7--7--|
|-10----------10----10-10----10----10-10----12-12-12----------12----12-12----12----12-12----7--7--|
|-10----------10----10-10----10----10-10----12-12-12----------12----12-12----12----12-12----7--7--|
|Guitars 3 and 4

|-------------------------------------------------------------------------------------------------|
|-------------------------------------------------------------------------------------------------|
|-16-16-16-16-16-16-16-16-16-16-16-16-16-16-16-16-16-16-16-16-16-16-16-16-16-16-16-16-16-16-16-16-|
|-x--x--x--x--x--x--x--x--x--x--x--x--x--x--x--x--x--x--x--x--x--x--x--x--x--x--x--x--x--x--x--x--|
|-14-14-14-14-14-14-14-14-14-14-14-14-14-14-14-14-14-14-14-14-14-14-14-14-14-14-14-14-14-14-14-14-|
|-------------------------------------------------------------------------------------------------|
|Guitar 2
|
|-------------------------------------------------------------------------------------------------|
|-------------------------------------------------------------------------------------------------|
|-------------------------------------------------------------------------------------------------|
|-7-----------7-----7--7-----7-----7--7-----4--4--4-----------4-----5--5-----5--------x--x--------|
|-7-----------7-----7--7-----7-----7--7-----4--4--4-----------4-----5--5-----5--------x--x--------|
|-7-----------7-----7--7-----7-----7--7-----4--4--4-----------4-----5--5-----5--------x--x--------|
|Guitars 3 and 4

Final Chorus
|-------------------------------------------------------------------------------------------------|
|-------------------------------------------------------------------------------------------------|
|-11-11-11-11-11-11-11-11-11-11-11-11-11-11-11-11-12-12-12-12-12-12-12-12-12-12-12-12-19-19-19-19-|
|-x--x--x--x--x--x--x--x--x--x--x--x--x--x--x--x--x--x--x--x--x--x--x--x--x--x--x--x--x--x--x--x--|
|-9--9--9--9--9--9--9--9--9--9--9--9--9--9--9--9--10-10-10-10-10-10-10-10-10-10-10-10-17-17-17-17-|
|-------------------------------------------------------------------------------------------------|
|Guitar 2
|
|-------------------------------------------------------------------------------------------------|
|-------------------------------------------------------------------------------------------------|
|-------------------------------------------------------------------------------------------------|
|-2-----------2-----2--2-----2-----2--2-----10-10-10----------10----10-10----10----10-10----5--5--|
|-2-----------2-----2--2-----2-----2--2-----10-10-10----------10----10-10----10----10-10----5--5--|
|-2-----------2-----2--2-----2-----2--2-----10-10-10----------10----10-10----10----10-10----5--5--|
|Guitars 3 and 4

|-------------------------------------------------------------------------------------------------|
|-------------------------------------------------------------------------------------------------|
|-16-16-16-16-16-16-16-16-16-16-16-16-16-16-16-16-16-16-16-16-16-16-16-16-16-16-16-16-16-16-16-16-|
|-x--x--x--x--x--x--x--x--x--x--x--x--x--x--x--x--x--x--x--x--x--x--x--x--x--x--x--x--x--x--x--x--|
|-14-14-14-14-14-14-14-14-14-14-14-14-14-14-14-14-14-14-14-14-14-14-14-14-14-14-14-14-14-14-14-14-|
|-------------------------------------------------------------------------------------------------|
|Guitar 2
|
|-------------------------------------------------------------------------------------------------|
|-------------------------------------------------------------------------------------------------|
|-------------------------------------------------------------------------------------------------|
|-5-----------5-----5--5-----5-----5--5-----7--7--7-----------7-----9--9-----9-----9--0-----0--0--|
|-5-----------5-----5--5-----5-----5--5-----7--7--7-----------7-----9--9-----9-----9--0-----0--0--|
|-5-----------5-----5--5-----5-----5--5-----7--7--7-----------7-----9--9-----9-----9--0-----0--0--|
|Guitars 3 and 4

|-------------------------------------------------------------------------------------------------|
|-------------------------------------------------------------------------------------------------|
|-11-11-11-11-11-11-11-11-11-11-11-11-11-11-11-11-12-12-12-12-12-12-12-12-12-12-12-12-19-19-19-19-|
|-x--x--x--x--x--x--x--x--x--x--x--x--x--x--x--x--x--x--x--x--x--x--x--x--x--x--x--x--x--x--x--x--|
|-9--9--9--9--9--9--9--9--9--9--9--9--9--9--9--9--10-10-10-10-10-10-10-10-10-10-10-10-17-17-17-17-|
|-------------------------------------------------------------------------------------------------|
|Guitar 2
|
|-------------------------------------------------------------------------------------------------|
|-------------------------------------------------------------------------------------------------|
|-------------------------------------------------------------------------------------------------|
|-2-----------2-----2--2-----2-----2--2-----10-10-10----------10----10-10----10----10-10----5--5--|
|-2-----------2-----2--2-----2-----2--2-----10-10-10----------10----10-10----10----10-10----5--5--|
|-2-----------2-----2--2-----2-----2--2-----10-10-10----------10----10-10----10----10-10----5--5--|
|Guitars 3 and 4

|-------------------------------------------------------------------------------------------------|
|-------------------------------------------------------------------------------------------------|
|-16-16-16-16-16-16-16-16-16-16-16-16-16-16-16-16-16-16-16-16-16-16-16-16-16-16-16-16-16-16-16-16-|
|-x--x--x--x--x--x--x--x--x--x--x--x--x--x--x--x--x--x--x--x--x--x--x--x--x--x--x--x--x--x--x--x--|
|-14-14-14-14-14-14-14-14-14-14-14-14-14-14-14-14-14-14-14-14-14-14-14-14-14-14-14-14-14-14-14-14-|
|-------------------------------------------------------------------------------------------------|
|Guitar 2
|
|-------------------------------------------------------------------------------------------------|
|-------------------------------------------------------------------------------------------------|
|-------------------------------------------------------------------------------------------------|
|-5-----------5-----5--5-----5-----5--5-----7--7--7-----------7-----9--9-----9-----9--0-----0--0--|
|-5-----------5-----5--5-----5-----5--5-----7--7--7-----------7-----9--9-----9-----9--0-----0--0--|
|-5-----------5-----5--5-----5-----5--5-----7--7--7-----------7-----9--9-----9-----9--0-----0--0--|
|Guitars 3 and 4

Outro
|-------------------------------------------------------------------------------------------------|
|-------------------------------------------------------------------------------------------------|
|-11-11-11-11-11-11-11-11-11-11-11-11-11-11-11-11-12-12-12-12-12-12-12-12-12-12-12-12-19-19-19-19-|
|-x--x--x--x--x--x--x--x--x--x--x--x--x--x--x--x--x--x--x--x--x--x--x--x--x--x--x--x--x--x--x--x--|
|-9--9--9--9--9--9--9--9--9--9--9--9--9--9--9--9--10-10-10-10-10-10-10-10-10-10-10-10-17-17-17-17-|
|-------------------------------------------------------------------------------------------------|
|Guitar 2
|
|-------------------------------------------------------------------------------------------------|
|-------------------------------------------------------------------------------------------------|
|-------------------------------------------------------------------------------------------------|
|-2-----------2-----2--2-----2-----2--2-----10-10-10----------10----10-10----10----10-10----5--5--|
|-2-----------2-----2--2-----2-----2--2-----10-10-10----------10----10-10----10----10-10----5--5--|
|-2-----------2-----2--2-----2-----2--2-----10-10-10----------10----10-10----10----10-10----5--5--|
|Guitars 3 and 4

|-------------------------------------------------------------------------------------------------|
|-------------------------------------------------------------------------------------------------|
|-16-16-16-16-16-16-16-16-16-16-16-16-16-16-16-16-16-16-16-16-16-16-16-16-16-16-16-16-16-16-16-16-|
|-x--x--x--x--x--x--x--x--x--x--x--x--x--x--x--x--x--x--x--x--x--x--x--x--x--x--x--x--x--x--x--x--|
|-14-14-14-14-14-14-14-14-14-14-14-14-14-14-14-14-14-14-14-14-14-14-14-14-14-14-14-14-14-14-14-14-|
|-------------------------------------------------------------------------------------------------|
|Guitar 2
|
|-------------------------------------------------------------------------------------------------|
|-------------------------------------------------------------------------------------------------|
|-------------------------------------------------------------------------------------------------|
|-5-----------5-----5--5-----5-----5--5-----7--7--7-----------7-----9--9-----9-----9--0-----0--0--|
|-5-----------5-----5--5-----5-----5--5-----7--7--7-----------7-----9--9-----9-----9--0-----0--0--|
|-5-----------5-----5--5-----5-----5--5-----7--7--7-----------7-----9--9-----9-----9--0-----0--0--|
|Guitars 3 and 4

|-------------------------------------------------------------------------------------------------|
|-------------------------------------------------------------------------------------------------|
|-11-11-11-11-11-11-11-11-11-11-11-11-11-11-11-11-12-12-12-12-12-12-12-12-12-12-12-12-19-19-19-19-|
|-x--x--x--x--x--x--x--x--x--x--x--x--x--x--x--x--x--x--x--x--x--x--x--x--x--x--x--x--x--x--x--x--|
|-9--9--9--9--9--9--9--9--9--9--9--9--9--9--9--9--10-10-10-10-10-10-10-10-10-10-10-10-17-17-17-17-|
|-------------------------------------------------------------------------------------------------|
|Guitar 2
|
|-------------------------------------------------------------------------------------------------|
|-------------------------------------------------------------------------------------------------|
|-------------------------------------------------------------------------------------------------|
|-2-----------2-----2--2-----2-----2--2-----10-10-10----------10----10-10----10----10-10----10----|
|-2-----------2-----2--2-----2-----2--2-----10-10-10----------10----10-10----10----10-10----10----|
|-2-----------2-----2--2-----2-----2--2-----10-10-10----------10----10-10----10----10-10----10----|
|Guitars 3 and 4

Ending - Guitar 2
|-------------------------------------------------------------------------------------------------|
|-------------------------------------------------------------------------------------------------|
|-16-16-16-16-16-16-16-16-16-16-16-16-16-16-16-16-------------------------------------------------|
|-x--x--x--x--x--x--x--x--x--x--x--x--x--x--x--x--------------------------------------------------|
|-14-14-14-14-14-14-14-14-14-14-14-14-14-14-14-14-------------------------------------------------|
|-------------------------------------------------------------------------------------------------|
Composição de Linkin Park
Colaboração e revisão:
  • Douglas Felipe
  • Andre Corsi
79.245 exibições
    • ½ Tom
    • A
    • Bb
    • B
    • C
    • Db
    • D
    • Eb
    • E
    • F
    • F#
    • G
    • Ab
  • Adicionar à lista

    0 comentários

    Ver todos os comentários

    Conseguiu tocar?

    3 Tocaram 0 Ainda não

    Grave um vídeo tocando Pushing Me Away e nos envie!

    00:00 / 00:00
    Outros vídeos desta música
    Repetir Qualidade Automático
    Outros vídeos desta música
    00:00 / 00:00
    Automático

    Cifra Club Pro

    Aproveite o Cifra Club com benefícios exclusivos e sem anúncios
    Cifra Club Pro
    Aproveite o Cifra Club com benefícios exclusivos e sem anúncios
    OK