Cifra Club

Waiting For The End

Linkin Park

Cifra: Original (violão e guitarra)
tom: E
Piano plays this throughout the song
E|-12-12--|
B|--------|
G|--------|
D|--------|
B|--------|
E|--------|

Synth
E|---------|
B|--//5~---| increase
G|---------|  volume
D|---------|
A|---------| play when
E|---------|  needed

Guitar 0:00-0:11
(Distortion.  Idk what effects.)
E|-----------------------|
B|-----------------------|
G|-9---9---9---9---9-9-9-| repeat
D|-------------------x-x-|
A|---7---7---7---7---7-7-|
E|-----------------------|

Guitar 1(Starts at 0:12.  Listen to when to strum it)
E|------------|
B|------------|
G|------------|
D|-2~-----2~--|
A|-2~-----2~--|
E|-0~-----0~--|

Guitar 2 (Played very quietly)
E|-----------------------|
B|-----------------------|
G|-9---9---9---9---9-9-9-| repeat
D|-------------------x-x-|
A|---7---7---7---7---7-7-|
E|-----------------------|

Synth (either let it ring or tremelo pick it)
Part A
0:48-1:31
E|-12~------9~-----------------------------|
B|------------------10~------9~------------|
G|---------------------------------11~-----| 2x
D|-----------------------------------------|
A|-----------------------------------------|
E|-----------------------------------------|

Part B
1:33-1:53
E|-9~-------------9~----------------------------------9~----------------|
B|--------10~-------------10~-------9~-------12~---------------10~------|
G|----------------------------------------------------------------------|
D|----------------------------------------------------------------------|
A|----------------------------------------------------------------------|
E|----------------------------------------------------------------------|

Synth Part A 1:57-2:19

Guitar
1:57-2:19
E|----------------------------------------------------------------|
B|----------------------------------------------------------------|
G|-1~--1-1--1-1-1--1~--1-1--1-1-1--6~--6-6--6-6-6--6~--6-6--6-6-6-| 2x
D|-2~--2-2--2-2-2--2~--2-2--2-2-2--7~--7-7--7-7-7--7~--7-7--7-7-7-|
A|-2~--2-2--2-2-2--2~--2-2--2-2-2--7~--7-7--7-7-7--7~--7-7--7-7-7-|
E|-0~--0-0--0-0-0--0~--0-0--0-0-0--5~--5-5--5-5-5--5~--5-5--5-5-5-|

Synth Part B 2:20

Guitar
2:20-2:41
E|-------------------------------------------------|
B|-5-5-5-5-5-5-------------5-5-5-5-5-5-------------|
G|-6-6-6-6-6-6-6-6-6-6-6-6-6-6-6-6-6-6-6-6-6-6-6-6-|
D|-6-6-6-6-6-6-7-7-7-7-7-7-6-6-6-6-6-6-7-7-7-7-7-7-|
A|-4-4-4-4-4-4-7-7-7-7-7-7-4-4-4-4-4-4-7-7-7-7-7-7-|
E|-------------5-5-5-5-5-5-------------5-5-5-5-5-5-|

E|-------------------------------------------------|
B|-------------4-4-4-4-4-4-5-5-5-5-5-5-------------|
G|-1-1-1-1-1-1-4-4-4-4-4-4-6-6-6-6-6-6-6-6-6-6-6-6-|
D|-2-2-2-2-2-2-4-4-4-4-4-4-6-6-6-6-6-6-7-7-7-7-7-7-|
A|-2-2-2-2-2-2-2-2-2-2-2-2-4-4-4-4-4-4-7-7-7-7-7-7-|
E|-0-0-0-0-0-0-------------------------5-5-5-5-5-5-|

Guitar 1
2:42-3:03
E|------------|
B|------------|
G|------------|
D|-2~-----2~--|
A|-2~-----2~--|
E|-0~-----0~--|

3:05-3:42 (you can either ring it out or strum a rhythm)
E|---------------------------------|
B|-----------------5~------4~------|
G|-1~------1~------6~------4~------| repeat
D|-2~------2~------6~------4~------|  till
A|-2~------2~------4~------2~------|  end
E|-0~------0~----------------------|

There's two riffs for the ending
Guitar 2
3:05-3:52
E|----------------------------------|
B|----------------------------------|
G|-9---9--9---9--9--9---9--9---9--9-|
D|---------------x----------------x-| repeat
A|---7------7----7----7------7----7-|
E|----------------------------------|

Other Guitar (plays guitar 2 parts for beginning of riff
but branches to higher notes for second part of it's riff)
E|----------------------------------|
B|----------------------------------|
G|-9---9--9---9--9--9---9--9---9--9-|
D|---------------x----------------x-|
A|---7------7----7----7------7----7-|
E|----------------------------------|

E|-9-7-9--9-7-9--7------------------------|
B|----------------------------------------|
G|------------------12-11-12--12-11-12--9-|
D|----------------------------------------|
A|----------------------------------------|
E|----------------------------------------|
Composição de Brad Delson / Chester Bennington / Dave Farrell / Joe Hahn / Mike Shinoda / Rob Bourdon
Colaboração e revisão:
  • Lucas Idalino
2.585 exibições
    • ½ Tom
    • A
    • Bb
    • B
    • C
    • Db
    • D
    • Eb
    • E
    • F
    • F#
    • G
    • Ab
  • Adicionar à lista

    0 comentários

    Ver todos os comentários

    Conseguiu tocar?

    0 Tocaram 0 Ainda não

    Grave um vídeo tocando Waiting For The End e nos envie!

    00:00 / 00:00
    Outros vídeos desta música
    Repetir Qualidade Automático
    Outros vídeos desta música
    00:00 / 00:00
    Automático

    Cifra Club Pro

    Aproveite o Cifra Club com benefícios exclusivos e sem anúncios
    Cifra Club Pro
    Aproveite o Cifra Club com benefícios exclusivos e sem anúncios
    OK