Cifra Club

Aprenda

What I've Done

Linkin Park

Cifra: Principal (violão e guitarra)
Tom: A
Afinação: D A D G B E

[Intro] 

E|------------------------------------------|
B|------------------------------------------|
G|---7---7-8-7---7--------------------------| (10x)
D|-5---5-------5----------------------------|
A|------------------------------------------|
E|------------------------------------------|

( G5  Bb5  F5  C5 )
( G5  Bb5  F5  C5 )

[Primeira Parte]

             G5
In this farewell
             Bb5
There's no blood
           F5    C5
There's no alibi
                      G5
'Cause I've drawn regret
           Bb5
From the truth
       F5          C5
Of a thousand lies

[Pré-Refrão]

              Eb5
So let mercy come
           F5
And wash away

[Refrão]

           G5
What I've done
      Bb5        
I'll face myself
F5            
  To cross out 
     C5      G5
What I've become
  Bb5
Erase myself
F5
  And let go of
  C5       G5
What I've done

[Segunda Parte]

        Bb5
Put to rest
           F5          C5
What you thought of me
                     G5
While I clean this slate
          Bb5        F5       C5
With the hands of uncertainty

[Pré-Refrão]

              Eb5
So let mercy come
           F5
And wash away

[Refrão]

           G5
What I've done
      Bb5        
I'll face myself
F5            
  To cross out 
     C5      G5
What I've become
  Bb5
Erase myself
F5
  And let go of
  C5  D5  Eb5  F5  G5
Wha----t  I've    done

[Solo] G5  Bb5  F5  C5
       G5  Bb5  F5  C5

Parte 1 de 4

E|------------------------------------------|
B|----------------------------------11------|
G|----10----10----10----10----12------------|
D|-12----12----12----12----12----12---------|
A|------------------------------------------|
E|------------------------------------------|

Parte 2 de 4

E|------------------------------------------|
B|------------------------------------------|
G|----10----10----10----10----12------------|
D|-12----12----12----12----12---------------|
A|------------------------------------------|
E|------------------------------------------|

E|------------------------------------------|
B|----10------------------------------------|
G|----------12----10------------------------|
D|-12----12----12---------------------------|
A|------------------------------------------|
E|------------------------------------------|

Parte 3 de 4

E|------------------------------------------|
B|----------------------------------11------|
G|----10----10----10----10----12------------|
D|-12----12----12----12----12----12---------|
A|------------------------------------------|
E|------------------------------------------|

Parte 4 de 4

E|------------------------------------------|
B|------------------------------------------|
G|----10----10----10----10----12------------|
D|-12----12----12----12----12---------------|
A|------------------------------------------|
E|------------------------------------------|

E|------------------------------------------|
B|----10----------------------11------------|
G|----------12----10----12----------12----10|
D|-12----12----12----12----12----12----12---|
A|------------------------------------------|
E|------------------------------------------|

E|------------------------------------------|
B|------------------------------------------|
G|----12----12------------------------------|
D|-12----12---------------------------------|
A|------------------------------------------|
E|------------------------------------------|

[Ponte]

D5      Eb5  F5    G5
  For what   I've done
       Bb5
I'll start again
F5              C5       G5
  And whatever pain may come
   Bb5          F5
Today this ends

I'm forgiving

[Refrão]

  C5       G5
What I've done
      Bb5        
I'll face myself
F5            
  To cross out 
     C5      G5
What I've become
  Bb5
Erase myself
F5
  And let go of
  C5       G5
What I've done

           Bb5
(Na-na na na)
           F5
(Na-na na na)
  C5       G5
What I've done

           Bb5
(Na-na na na)
           F5
(Na-na na na)
            C5       G5
Forgiving what I’ve done

[Final]

E|------------------------------------------|
B|------------------------------------------|
G|---7---7-8-7---7--------------------------| (4x)
D|-5---5-------5----------------------------|
A|------------------------------------------|
E|------------------------------------------|
Composição de Chester Bennington / Linkin Park / Mike Shinoda
276.086 exibições
    • ½ Tom
    • A
    • Bb
    • B
    • C
    • Db
    • D
    • Eb
    • E
    • F
    • F#
    • G
    • Ab
  • Adicionar à lista

    0 comentários

    Mostrar mais comentários

    Conseguiu tocar?

    44 Tocaram 6 Ainda não

    Grave um vídeo tocando What I've Done e mande pra gente!

    00:00 / 00:00
    outros vídeos desta música
    repetir qualidade Automático
    Outros vídeos desta música
    00:00 / 00:00
    Automático

    Cifra Club Pro

    Aproveite o Cifra Club com benefícios exclusivos e sem anúncios
    7 dias grátis
    Cifra Club Pro
    Aproveite o Cifra Club com benefícios exclusivos e sem anúncios
    7 dias grátis
    OK