Cifra Club

What I've Done

Linkin Park

Cifra: Principal
exibições 241.952
Tom: A#
Afinação: Db Ab Db Gb Bb Eb

[Intro] 

Eb|-------------------------|
Bb|-------------------------|
Gb|----8--898---8-----------| (10x)
Db|--6--6-----6-------------|
Ab|-------------------------|
Db|-------------------------|

[Refrão] What I've done...

  Guitarra 1
Eb|--------------------------------------------------------------------------------|
Bb|--------------------------------------------------------------------------------|
Gb|----------------------------------------------------------6-6-6-6-6-6-6-6-------|  (2x)
Db|-x-xx--6-6-6-6-6-6-6-6--9-9-9-9-9-9-9-9--4-4-4-4-4-4-4-4--6-6-6-6-6-6-6-6-------|
Ab|-x-xx--6-6-6-6-6-6-6-6--9-9-9-9-9-9-9-9--4-4-4-4-4-4-4-4--4-4-4-4-4-4-4-4-------|
Db|-x-xx--6-6-6-6-6-6-6-6--9-9-9-9-9-9-9-9--4-4-4-4-4-4-4-4------------------------|

  Guitarra 2
Eb|----------------------------------------------------|
Bb|----------------------------------------------------|
Gb|-----------------------6----------------------------|  (2x)
Db|-6-6-6-6-9-9-8-9-9-9-9---8-8-8-9-6-6-9-8---9--------|
Ab|-6-6-6-6-6-6-6-6-6-6-6-6-6-6-6-6-6-6-6-6---6--------|
Db|----------------------------------------------------|

[Pré-Refrão]

   So let mercy come... And wash away...
Eb|-------------------|
Bb|-------------------|
Gb|-------------------|
Db|--2------4---------|
Ab|--2------4---------|
Db|--2------4---------|

[Refrão]

  Guitarra 1
Eb|--------------------------------------------------------------------------------|
Bb|--------------------------------------------------------------------------------|
Gb|----------------------------------------------------------6-6-6-6-6-6-6-6-------|  (2x)
Db|-x-xx--6-6-6-6-6-6-6-6--9-9-9-9-9-9-9-9--4-4-4-4-4-4-4-4--6-6-6-6-6-6-6-6-------|
Ab|-x-xx--6-6-6-6-6-6-6-6--9-9-9-9-9-9-9-9--4-4-4-4-4-4-4-4--4-4-4-4-4-4-4-4-------|
Db|-x-xx--6-6-6-6-6-6-6-6--9-9-9-9-9-9-9-9--4-4-4-4-4-4-4-4------------------------|

  Guitarra 2
Eb|----------------------------------------------------|
Bb|----------------------------------------------------|
Gb|-----------------------6----------------------------|  (2x)
Db|-6-6-6-6-9-9-8-9-9-9-9---8-8-8-9-6-6-9-8------------|
Ab|-6-6-6-6-6-6-6-6-6-6-6-6-6-6-6-6-6-6-6-6------------|
Db|----------------------------------------------------|

[Pré-Refrão] 

   So let mercy come... And wash away...
Eb|-------------------|
Bb|-------------------|
Gb|-------------------|
Db|--2------4---------|
Ab|--2------4---------|
Db|--2------4---------|

[Refrão]

  Guitarra 1
Eb|---------------------------------------------------------------------|    |-------------------------------|
Bb|---------------------------------------------------------------------|    |-------------------------------|
Gb|-----------------------------------------------------6-6-6-6-6-6-6-6-|(2x)|-------------9-9-9-9-111111----|
Db|--6-6-6-6-6-6-6-6--9-9-9-9-9-9-9-9--4-4-4-4-4-4-4-4--6-6-6-6-6-6-6-6-|    |-6-6-6-8-8-8-9-9-9-9-111111-6--|
Ab|--6-6-6-6-6-6-6-6--9-9-9-9-9-9-9-9--4-4-4-4-4-4-4-4--4-4-4-4-4-4-4-4-|    |-6-6-6-8-8-8-7-7-7-7--9-9-9-6--|
Db|--6-6-6-6-6-6-6-6--9-9-9-9-9-9-9-9--4-4-4-4-4-4-4-4------------------|    |-6-6-6-8-8-8----------------6--|

  Guitarra 2
Eb|-------------------------------------------|    |------------------------------------|
Bb|-------------------------------------------|    |------------------------------------|
Gb|-----------------------6-------------------|(2x)|------------------------------------|
Db|-6-6-6-6-9-9-8-9-9-9-9---8-8-8-9-6-6-8-9-6-|    |-6-6-6-6-8-8-8-8-9-9-9-9-11111111---|
Ab|-6-6-6-6-6-6-6-6-6-6-6-6-6-6-6-6-6-6-6-6-6-|    |-6-6-6-6-6-6-6-6-6-6-6-6--9-9-9-9---|
Db|-------------------------------------------|    |------------------------------------|

[Solo Base]

  Guitarra 1
Eb|---------------------------------------------------------------------|    |-------------------------------|
Bb|---------------------------------------------------------------------|    |-------------------------------|
Gb|-----------------------------------------------------6-6-6-6-6-6-6-6-|(2x)|-------------9-9-9-9-111111----|
Db|--6-6-6-6-6-6-6-6--9-9-9-9-9-9-9-9--4-4-4-4-4-4-4-4--6-6-6-6-6-6-6-6-|    |-6-6-6-8-8-8-9-9-9-9-111111-6--|
Ab|--6-6-6-6-6-6-6-6--9-9-9-9-9-9-9-9--4-4-4-4-4-4-4-4--4-4-4-4-4-4-4-4-|    |-6-6-6-8-8-8-7-7-7-7--9-9-9-6--|
Db|--6-6-6-6-6-6-6-6--9-9-9-9-9-9-9-9--4-4-4-4-4-4-4-4------------------|    |-6-6-6-8-8-8----------------6--|

  Guitarra 2
Eb|-------------------------------------------|    |------------------------------------|
Bb|-------------------------------------------|    |------------------------------------|
Gb|-----------------------6-------------------|(2x)|------------------------------------|
Db|-6-6-6-6-9-9-8-9-9-9-9---8-8-8-9-6-6-8-9-6-|    |-6-6-6-6-8-8-8-8-9-9-9-9-11111111---|
Ab|-6-6-6-6-6-6-6-6-6-6-6-6-6-6-6-6-6-6-6-6-6-|    |-6-6-6-6-6-6-6-6-6-6-6-6--9-9-9-9---|
Db|-------------------------------------------|    |------------------------------------|

[Solo]

Eb|------------------------------------------------------------------|
Bb|-----------------------12--12--12----------------------11---------|
Gb|---11--11--11--11--13--------------11--11--11--11--13------13--11-|  (2x)
Db|-13--13------13--13--13------13--13--13------13--13--13--13--13---|
Ab|------------------------------------------------------------------|
Db|------------------------------------------------------------------|

Eb|-----------------------------|
Bb|-------12--------------------|
Gb|---13------13--11--13--------|
Db|-13--13--13--13--13--13------|
Ab|-----------------------------|
Db|-----------------------------|

[Refrão]

  Guitarra 1 (palm mute)
Eb|---------------------------------------------------------------------------|
Bb|---------------------------------------------------------------------------|
Gb|-----------------------------------------------------6-6-6-6-6-6-6-6-------|  (2x)
Db|--6-6-6-6-6-6-6-6--9-9-9-9-9-9-9-9--4-4-4-4-4-4-4-4--6-6-6-6-6-6-6-6-------|
Ab|--6-6-6-6-6-6-6-6--9-9-9-9-9-9-9-9--4-4-4-4-4-4-4-4--4-4-4-4-4-4-4-4-------|
Db|--6-6-6-6-6-6-6-6--9-9-9-9-9-9-9-9--4-4-4-4-4-4-4-4------------------------|
     x x x x x x x x  x x x x x x x x  x x x x x x x x  x x x x x x x x

  Guitarra 2
Eb|----------------------------------------------------|
Bb|----------------------------------------------------|
Gb|-----------------------6----------------------------|  (2x)
Db|-6-6-6-6-9-9-8-9-9-9-9---8-8-8-9-6-6-9-8------------|
Ab|-6-6-6-6-6-6-6-6-6-6-6-6-6-6-6-6-6-6-6-6------------|
Db|----------------------------------------------------|

[Refrão]

  Guitarra 1
Eb|---------------------------------------------------------------------------|
Bb|---------------------------------------------------------------------------|
Gb|-----------------------------------------------------6-6-6-6-6-6-6-6-------|  (4x)
Db|--6-6-6-6-6-6-6-6--9-9-9-9-9-9-9-9--4-4-4-4-4-4-4-4--6-6-6-6-6-6-6-6-------|
Ab|--6-6-6-6-6-6-6-6--9-9-9-9-9-9-9-9--4-4-4-4-4-4-4-4--4-4-4-4-4-4-4-4-------|
Db|--6-6-6-6-6-6-6-6--9-9-9-9-9-9-9-9--4-4-4-4-4-4-4-4------------------------|

  Guitarra 2
Eb|----------------------------------------------------|
Bb|----------------------------------------------------|
Gb|-----------------------6----------------------------|  (4x)
Db|-6-6-6-6-9-9-8-9-9-9-9---8-8-8-9-6-6-9-8------------|
Ab|-6-6-6-6-6-6-6-6-6-6-6-6-6-6-6-6-6-6-6-6------------|
Db|----------------------------------------------------|

[Final]

Eb|-----------|
Bb|-----------|
Gb|-----------|
Db|--6--------|
Ab|--6--------|
Db|--6--------|

Eb|----------------------|
Bb|----------------------|
Gb|----8--898---8--------|  (4x)
Db|--6--6-----6----------|
Ab|----------------------|
Db|----------------------|

0 comentários

    mostrar mais comentários

    Conseguiu tocar?

    32tocaram3ainda não

    Grave um vídeo tocando What I've Done e mande pra gente!

    00:00 / 00:00
    outros vídeos desta música
    repetirqualidadeautomática
    Outro vídeos desta música
      00:00 / 00:00
      automática
      OK