Cifra Club

Chicharos Magicos

Liquits

Cifra: Principal (violão e guitarra)
Selo Cifra Club: esta cifra foi revisada para atender aos critérios oficiais da nossa Equipe de Qualidade.
tom: G
Verso 
|-------------------------------------|      |---| 
|-----8---------7--------8--------7---|      |-8-| 
|---7--7------6---6----7---7----6---6-|x(...)|-7-| 
|-5---------4--------5--------4-------|      |-5-| 
|-------------------------------------|      |---| 
|-------------------------------------|      |---| 

Verso 2 
|-------------------------------------|      |---| 
|-----12-------13------12-------13----|      |-12| 
|---11-11----12-12---11-11----12-12---|x(...)|-11| 
|-9--------10-------9-------10--------|      |-9-| 
|-------------------------------------|      |---| 
|-------------------------------------|      |---| 

Esto se toca en toda la parte del principio hasta que 
empieza la parte de 'Veendo agua de frutas natural' 
done se toca esto: 
|-10--8---7---8---10-| 
|-12--10--8---10--12-| 
|--------------------| 
|--------------------| 
|--------------------| 
|--------------------| 

y de regreso al verso.. 
....................... 

Luego con distorciòn: 
|-------------------| 
|-------------------| 
|-8--7---8----7-----|x2 
|-8--7---8----7-----| 
|-6--5---6----5-----| 
|-------------------| 

Outro (sin disto): 
|----------------------0-----------5/2~-| 
|---------3~----------------------------| 
|---0---0--------0---0-------0---0------| 
|-----2------------2-----------2--------| 
|-3------------3-----------3------------| 
|---------------------------------------| 

|-------------------------| 
|-------------------------| 
|---0---0---0---0---0---0-| 
|-----2-------2-------2---| x Muchas veces hasta que 
|-3-------3-------3-------|   termine la canciòn. 
|-------------------------| 

Es una cancion muy facil, solo es cosa de escuchar 
la cancion para ver cuantas veces se repite y a que 
velocidad tocarla, no entiendo porque nadie habia 
puesto una tablatura decente de esta cancion...
Outros vídeos desta música
    926 exibições
      • ½ Tom
      • A
      • Bb
      • B
      • C
      • Db
      • D
      • Eb
      • E
      • F
      • F#
      • G
      • Ab
    • Adicionar à lista

    Afinação da cifra

    Afinador online

      0 comentários

      Ver todos os comentários

      Entre para o Cifra Club PRO

      Tenha acesso a benefícios exclusivos no App e no Site

      • Chega de anúncios

      • Mais recursos no app do Afinador

      • Atendimento Prioritário

      • Aumente seu limite de lista

      • Ajude a produzir mais conteúdo

      Cifra Club Pro

      Aproveite o Cifra Club com benefícios exclusivos e sem anúncios
      Cifra Club Pro
      Aproveite o Cifra Club com benefícios exclusivos e sem anúncios
      OK