Cifra Club

Koe No Katachi

LIT

Cifra: Principal (violão e guitarra)
Selo Cifra Club: esta cifra foi revisada para atender aos critérios oficiais da nossa Equipe de Qualidade.
tom: E
[Intro]
E|-4---2---5-4-|-4---2---5-4--|-4---2---5-4-|-----0--|-4---2-5-4-|
B|---0---0-----|---0---0------|---0---0-----|-2-4----|---0-------|
G|-------------|--------------|-------------|--------|-----------|
D|-------------|--------------|-------------|--------|-----------|
A|-------------|--------------|-------------|--------|-----------|
E|-------------|--------------|-------------|--------|-----------|

E|-4---2---5-4--|-----0----|-4---------|-----------|------------|
B|---0---0------|-2-4------|-----------|-2---------|-4-2---4----|
G|--------------|----------|-----------|-----------|------------|
D|--------------|----------|-----------|-----------|------------|
A|--------------|----------|-----------|-----------|------------|
E|--------------|----------|-----------|-----------|------------|

[Bridge]

E|-0-----|---------|-----------|---------|-0-----0--|-12-------|
B|-------|---------|-2---------|-4-2-4---|----------|----------|
G|-------|---------|-----------|---------|----------|----------|
D|-------|---------|-----------|---------|----------|----------|
A|-------|---------|-----------|---------|----------|----------|
E|-------|---------|-----------|---------|----------|----------|

[Solo]

E|-4---2---5-4--|-4---2---5-4--|-4---2---5-4--|-2---0-----0---|
B|---0---0------|---0---0------|---0---0------|---0---0-4-----|
G|--------------|--------------|--------------|---------------|
D|--------------|--------------|--------------|---------------|
A|--------------|--------------|--------------|---------------|
E|--------------|--------------|--------------|---------------|

E|-4-2---5-4--|-4---2---5-4--|-4---2---5-4--|-2---0-----0---|
B|-----0------|---0---0------|---0---0------|---0---0-4-----|
G|------------|--------------|--------------|---------------|
D|------------|--------------|--------------|---------------|
A|------------|--------------|--------------|---------------|
E|------------|--------------|--------------|---------------|

E|-4---2---5-4--|-4---2---5-4--|-4---2---5-4--|-2---0-----0---|
B|---0---0------|---0---0------|---0---0------|---0---0-4-----|
G|--------------|--------------|--------------|---------------|
D|--------------|--------------|--------------|---------------|
A|--------------|--------------|--------------|---------------|
E|--------------|--------------|--------------|---------------|

E|-4---2---5-4--|-4---2---5-4--|-4---2---5-4--|-2---0-----0--|-2-----------|
B|---0---0------|---0---0------|---0---0------|---0---0-4----|-------------|
G|--------------|--------------|--------------|--------------|-------------|
D|--------------|--------------|--------------|--------------|-------------|
A|--------------|--------------|--------------|--------------|-------------|
E|--------------|--------------|--------------|--------------|-------------|

[Bridge]
E|---------|-0---------|-----------|-2---------|-------2--|-0----------|-----------|-2----------|
B|-4-2--4--|-----------|-----------|-----------|-4-2------|------------|-----------|------------|
G|---------|-----------|-----------|-----------|----------|------------|-----------|------------|
D|---------|-----------|-----------|-----------|----------|------------|-----------|------------|
A|---------|-----------|-----------|-----------|----------|------------|-----------|------------|
E|---------|-----------|-----------|-----------|----------|------------|-----------|------------|

E|---------|-0-------2--|-4-2------|----------|-------2-|-0-------|---------|
B|-4-2--4--|------------|----------|-2--------|-4-2-----|---------|---------|
G|---------|------------|----------|-------2--|---------|---------|---------|
D|---------|------------|----------|----------|---------|---------|---------|
A|---------|------------|----------|----------|---------|---------|---------|
E|---------|------------|----------|----------|---------|---------|---------|

E|-12-------|----------|-4---2---5-4--|-4---2---5-4--|
B|----------|----------|---0---0------|---0---0------|
G|----------|----------|--------------|--------------|
D|----------|----------|--------------|--------------|
A|----------|----------|--------------|--------------|
E|----------|----------|--------------|--------------|

E|-4---2---5----|-4--------|-0--------|----------|
B|---0---0------|----------|----------|----------|
G|--------------|----------|----------|-2--------|
D|--------------|----------|----------|----------|
A|--------------|----------|----------|----------|
E|--------------|----------|----------|----------|
00:00 / 00:00
Outros vídeos desta música
Repetir
Outros vídeos desta música
72 exibições
    • ½ Tom
    • A
    • Bb
    • B
    • C
    • Db
    • D
    • Eb
    • E
    • F
    • F#
    • G
    • Ab
  • Adicionar à lista

Afinação da cifra

Afinador online

    0 comentários

    Ver todos os comentários

    Entre para o Cifra Club PRO

    Tenha acesso a benefícios exclusivos no App e no Site

    • Chega de anúncios

    • Mais recursos no app do Afinador

    • Atendimento Prioritário

    • Aumente seu limite de lista

    • Ajude a produzir mais conteúdo

    00:00 / 00:00

    Cifra Club Pro

    Aproveite o Cifra Club com benefícios exclusivos e sem anúncios
    Cifra Club Pro
    Aproveite o Cifra Club com benefícios exclusivos e sem anúncios
    OK