Cifra Club

Aprenda

Over my head

LIT

Cifra: Principal (violão e guitarra)
tom: D
Intro (chorus)
e|---------------------------------------------------------------------------|
B|---------------------------------------------------------------------------|
G|-7--7----------------------------------------------------------------------|
D|-7--7--7x7x7--5--5--7x7x7--5--5--7x7x7-------------------------------------|
A|-5--5--7x7x7--5--5--7x7x7--5--5--7x7x7-------------------------------------|
E|-------5x5x5--3--3--5x5x5--3--3--5x5x5-------------------------------------|

e|---------------------------------------------------------------------------|
B|----------8-7-5-5-7---2x---------------------------------------------------|
G|-7.....--------7----7-----then---------------------------------------------|
D|-7.....-------------------------2-4-5--------------------------------------|
A|-5.....-------------------------2-4-5--------------------------------------|
E|--------------------------------0-2-3--------------------------------------|

Verse
e|---------------------------------------------------------------------------|
B|---------------------------------------------------------------------------|
G|-7-------------------------------------------------------------------------|
D|-7------------------2-4-5-------2x-----------------------------------------|
A|-5------------------2-4-5--------------------------------------------------|
E|--------------------0-2-3--------------------------------------------------|
    ................
    P.M.

Pre-chorus
e|---------------------------------------------------------------------------|
B|---7-----7-----7-----7-----------------------------------------------------|
G|-----7-----7-----7-----7-----------7---------------------------------------|
D|--------------------------2x--then-7------5--------------------------------|
A|-5-----4---------------------------5......5--------------------------------|
E|-------------6-----5----------------------3....----------------------------|

Chorus
e|---------------------------------------------------------------------------|
B|---------------------------------------------------------------------------|
G|-7--7----------------------------------------------------------------------|
D|-7--7--7x7x7--5--5--7x7x7--2-2--5-5--2x------------------------------------|
A|-5--5--7x7x7--5--5--7x7x7--2-2--5-5----------------------------------------|
E|-------5x5x5--3--3--5x5x5--0-0--3-3----------------------------------------|

Bridge(2x) then do the same thing three times each note and palm-muted
e|---------------------------------------------------------------------------|
B|-8-7-5---5-7---------------------------------------------------------------|
G|-------7-----7-------------------------------------------------------------|
D|---------------------------------------------------------------------------|
A|---------------------------------------------------------------------------|
E|---------------------------------------------------------------------------|
Composição de A. Jay Popoff / Jeremy Popoff
Colaboração e revisão:
  • Gabriel Pastore
5.775 exibições
    • ½ Tom
    • A
    • Bb
    • B
    • C
    • Db
    • D
    • Eb
    • E
    • F
    • F#
    • G
    • Ab
  • Adicionar à lista

    0 comentários

    Ver todos os comentários

    Conseguiu tocar?

    0 Tocaram 0 Ainda não

    Grave um vídeo tocando Over my head e nos envie!

    00:00 / 00:00
    outros vídeos desta música
    repetir qualidade Automático
    Outros vídeos desta música
    00:00 / 00:00
    Automático

    Cifra Club Pro

    Aproveite o Cifra Club com benefícios exclusivos e sem anúncios
    Cifra Club Pro
    Aproveite o Cifra Club com benefícios exclusivos e sem anúncios
    OK