Cifra Club

Please Tell Me Why

LIT

Cifra: Principal (violão e guitarra)
Selo Cifra Club: esta cifra foi revisada para atender aos critérios oficiais da nossa Equipe de Qualidade.
tom: A
hey everybody hope u like it please comment.
and on the solo i probably got at least 97% correct.
thanks, 
       johnnyv123
email:*


intro:
||-----------------------------------------||
||-----------------------------------------||
||-----------------------------------------||
||---8/9-9-9-9-9-9-9-9---8/9-9-9-9-9--9-7--||     x4
||---6/7-7-7-7-7-7-7-7---6/7-7-7-7-7--9-7--||
||------------------------------------7-5--||


||-----------------------------------------||
||-----------------------------------------||
||-----------------------------------------||
||---2-2---2-2---2-2---2-9/7---------------||     x3  
||---2-2---2-2---2-2---2-9/7---------------||
||---0-0---0-0---0-0---0-7/5---------------||


||--------------------------------------------||
||--------------------------------------------||
||--------------------------------------------||
||---2-2---2-2---2-2---2-9----7---------------||    x1   
||---2-2---2-2---2-2---2-9----7---------------||
||---0-0---0-0---0-0---0-7----5---------------||
                         (let ^ ring)
                    


||-----------------------------------------||
||-----------------------------------------||
||-----------------------------------------||
||---8/9-9-9-9-9-9-9-9---8/9-9-9-9-9--9-7--||     x2
||---6/7-7-7-7-7-7-7-7---6/7-7-7-7-7--9-7--||
||------------------------------------7-5--||


||-----------------------------------------||
||-----------------------------------------||
||-----------------------------------------||
||---2-2---2-2---2-2---2-9/7---------------||     x3  
||---2-2---2-2---2-2---2-9/7---------------||
||---0-0---0-0---0-0---0-7/5---------------||


||--------------------------------------------||
||--------------------------------------------||
||--------------------------------------------||
||---2-2---2-2---2-2---2-9----7---------------||    x1   
||---2-2---2-2---2-2---2-9----7---------------||
||---0-0---0-0---0-0---0-7----5---------------||
                         (let ^ ring)


solo:
||------------------------------------------||
||------------------------------------------||
||------------------------------------11-11-||
||---8/9-9-9-9-9-9-9-9---8/9-9-9-9-9--11 11-||     x2
||---6/7-7-7-7-7-7-7-7---6/7-7-7-7-7--9--9--||
||------------------------------------------||


||--------------------------------------------------------------||
||---9/1010101010101010--9/1010101010-12-12--12/1414141412121212||
||---8/9-9-9-9-9-9-9-9---8/9-9-9-9-9--11-11--11-----------------||
||---6/7-7-7-7-7-7-7-7---6/7-7-7-7-7--9--9---9------------------||     
||--------------------------------------------------------------||
||--------------------------------------------------------------||


||-----------------------------------------||
||--10101010-9-5---------------------------||
||-----------------------------------------||
||------- (let ^ ring----------------------||       
||-----------------------------------------||
||-----------------------------------------||


outro:
||-----------------------------------------||
||-----------------------------------------||
||-----------------------------------------||
||---8/9-9-9-9-9-9-9-9---8/9-9-9-9-9--9-7--||     x2
||---6/7-7-7-7-7-7-7-7---6/7-7-7-7-7--9-7--||
||------------------------------------7-5--||


thats pretty much it :)
00:00 / 00:00
Outros vídeos desta música
Repetir
Outros vídeos desta música
450 exibições
    • ½ Tom
    • A
    • Bb
    • B
    • C
    • Db
    • D
    • Eb
    • E
    • F
    • F#
    • G
    • Ab
  • Adicionar à lista

Afinação da cifra

Afinador online

    0 comentários

    Ver todos os comentários

    Entre para o Cifra Club PRO

    Tenha acesso a benefícios exclusivos no App e no Site

    • Chega de anúncios

    • Mais recursos no app do Afinador

    • Atendimento Prioritário

    • Aumente seu limite de lista

    • Ajude a produzir mais conteúdo

    00:00 / 00:00

    Cifra Club Pro

    Aproveite o Cifra Club com benefícios exclusivos e sem anúncios
    Cifra Club Pro
    Aproveite o Cifra Club com benefícios exclusivos e sem anúncios
    OK