Cifra Club

Let It Rain

Living Things

Cifra: Principal (violão e guitarra)
Tom: G
(intro)

E|-------------|--------------| (play this twice but on the second time

 B|8-8--8--8--8-|--8--8--8--8-8|  LEAVE OUT THE FIRST Bb CORD)
g|8-8--8--8--8-|--8--8--8--8-8|
d|8-10-10-10-10|-10-10-10-10-8|
a|-------------|--------------|
e|-------------|--------------|

(verse 1)
e|---------------------------|----------------|
b|--8--8--8--8--8--8--8--8--8|-8-8-8-8-8-8-8-8|
g|--8--8--8--8--8--8--8--8--8|-8-8-8-8-8-8-8-8|
d|-10-10-10-10-10-10-10-10-10|-8-8-8-8-8-8-8-8|
a|---------------------------|----------------|
e|---------------------------|----------------|

E|------------------|----------------------| (play the whole verse threetimes
B|-4-4-4-4-6-6-4-4-4|-3-3-3-3-3-4-4-6-6-6--|  but on the last time, the
G|-5-5-5-5-7-7-5-5-5|-5-5-4-4-4-5-5-7-7-7--|  distorted guitar plays c, b,
D|-6-6-6-6-6-6-6-6-6|-5-5-5-5-5-6-6-8-8-8--|  c, d on the g string)
a|------------------|----------------------|
e|------------------|----------------------|

(chorus 1)
e|----------------|----------------|
B|----------------|----------------| play four times
g|-5-5-5-5--------|---------8-8-7-7|
d|-5-5-5-5-5-5-5-5|-6-6-6-6-8-8-7-7|
a|-3-3-3-3-5-5-5-5|-6-6-6-6-6-6-5-5|
e|---------3-3-3-3|-4-4-4-4--------|

Halfway through the chorus, another guitar plays this:

e|-15-15-15-15-15-15-15-15|-16-16-16-16-15-15-15-15--|
b|-16-16-16-16-16-16-16-16|-18-18-18-18-16-16-16-16--|
g|------------------------|--------------------------|
d|------------------------|--------------------------|
a|------------------------|--------------------------|
e|------------------------|--------------------------|

(verse 2 - same is verse one, just played two time)

(chorus 2 - Same as chorus one, except on the last time, keep playing Bb for the last part)

(bridge)

(guitar one)
E|-----------------|---------------------------------| those are 17s, played
B|-----------------|---------------------------------| four times
g|-5555555555555555|-1717171717171717----------------|
d|-----------------|---------------------------------|
a|-----------------|------------------3--3-----------|
e|-----------------|---------------------------------|

(guitar two)
E|------------------------|----------------------------|   4x
b|------------------------|----------------------------|
g|------------------------|----------------------------|
d|------------------------|----------------------------|
a|-3-5~-3-6~-3-5~-3-6~-3-3|----------------------------|
e|------------------------|--4~-6~--8~-----------------|

(the last time, Ab, Bb, C is played by both guitars insted of the two C )

(verse 3)
exibições 166
Acordes para:
    Composição: Lillian Berlin / Living Things Colaboração e revisão:
    • Élison Duarte

    0 comentários

    mostrar mais comentários

    Conseguiu tocar?

    0 tocaram 0 ainda não

    Grave um vídeo tocando Let It Rain e mande pra gente!

    00:00 / 00:00
    outros vídeos desta música
    repetir qualidade Automático
    Outros vídeos desta música
    00:00 / 00:00
    Automático
    OK