Cifra Club

Seattlehead

Loaded

Cifra: Principal (violão e guitarra)
Selo Cifra Club: esta cifra foi revisada para atender aos critérios oficiais da nossa Equipe de Qualidade.
tom: F#
(intro heavily palm muted x6)
eb|-------------------------|
bb|-------------------------|
gb|-------------------------|
db|--44-4-44-4-4-4-4-4-4-4--|
ab|--44-4-44-4-4-4-4-4-4-4--|
eb|--22-2-22-2-2-2-2-2-2-2--|

(main riff)                          x8 but palm mute after played twice
eb|-----------------------------------|
bb|-----------------------------------|
gb|--------------555-------------444--|
db|--4-4-4-4-4-4-555-5-5-5-5-5-5-444--|
ab|--4-4-4-4-4-4-333-5-5-5-5-5-5-222--|
eb|--2-2-2-2-2-2-----3-3-3-3-3-3------|

(chorus)                       x2
eb|---------------------------------|-------------------|
Bb|---------------------------------|-------------------| played after 1st
Gb|---------------------------------|-------------------| time only
db|--7-7-7-7--10-10-10-10--7-7-7-7--|--9br-9br-9br-9br--|
ab|--7-7-7-7--10-10-10-10--7-7-7-7--|-------------------|
eb|--5-5-5-5--8--8--8--8---5-5-5-5--|-------------------|

1.31                                                 x4
eb|----------------------------------------------------|
bb|----------------------------------------------------|
gb|----------------------------------------------------|
db|--14-14-14-14-14-14-14-14--10-10-10-10-10-10-10-10--|
ab|--14-14-14-14-14-14-14-14--10-10-10-10-10-10-10-10--|
eb|--12-12-12-12-12-12-12-12--8--8--8--8--8--8--8--8---|

1.51             x2
eb|----------------|
bb|----------------|
gb|----------------|
db|--77-22--55-22--|
ab|--77-22--55-22--|
eb|--55-00--33-00--|

2.01               x4
eb|------------------|
bb|------------------|
gb|--77--99--77--77--|
db|--77--99--77--77--|
ab|--55--77--55--55--|
eb|------------------|

2.41                                         x4
eb|--------------------------------------------|
bb|--------------------------------------------|
gb|--------------------------------------------|
db|--------------------------------------------|
ab|--------------------------------------------|
eb|--22-0-22-0-222-0-22--0-33-0-33-0-333-0-33--|

3.19            x16
eb|--14~-12-14-12--|
bb|----------------|
gb|----------------|
db|----------------|
ab|----------------|
eb|----------------|
Outros vídeos desta música
    273 exibições
      • ½ Tom
      • A
      • Bb
      • B
      • C
      • Db
      • D
      • Eb
      • E
      • F
      • F#
      • G
      • Ab
    • Adicionar à lista

    Afinação da cifra

    Afinador online

      0 comentários

      Ver todos os comentários

      Entre para o Cifra Club PRO

      Tenha acesso a benefícios exclusivos no App e no Site

      • Chega de anúncios

      • Mais recursos no app do Afinador

      • Atendimento Prioritário

      • Aumente seu limite de lista

      • Ajude a produzir mais conteúdo

      Cifra Club Pro

      Aproveite o Cifra Club com benefícios exclusivos e sem anúncios
      Cifra Club Pro
      Aproveite o Cifra Club com benefícios exclusivos e sem anúncios
      OK