Cifra Club

Aprenda

Liability

Lorde

Cifra: Versão 2 (violão e guitarra)
tom: Db (forma dos acordes no tom de C) Capotraste na 1ª casa
[Intro]

   C         Em        Am        G         F         Am/E      Dm        G
E|-0---0---|-0---0---|-0-------|---------|---------|---------|---------|---------|
B|-1---1---|-0---0---|-1---1---|-3-------|-1-------|-1-------|-3-------|---------|
G|---------|---------|-------2-|-0---0---|-2---2---|-2---2---|-2---2---|---------|
D|---------|---------|---------|-------0-|-------3-|-------2-|-0-----0-|-0-----0-|
A|-3-----3-|-2-----2-|-0-------|---------|---------|---------|---------|---0-2---|
E|---------|---------|---------|-3-------|-1-------|-0-------|---------|-3-------|

[Refrão]

    C         Em        Am        G         F         Am/E      Dm       G
E|--8---8--|--7---7--|--5---5--|--3---3--|--1---1--|--0---0--|--1---1--|---------|
B|--8---8--|--8---8--|--5---5--|--3---3--|--2---2--|--1---1--|--3---3--|---------|
G|--9---9--|--9---9--|--5---5--|--4---4--|--3---3--|--2---2--|--2---2--|---------|
D|--10--10-|--9---9--|--7---7--|--5---5--|--3---3--|--2---2--|--0---0--|-0-----0-|
A|---------|---------|---------|---------|---------|---------|---------|---0-2---|
E|---------|---------|---------|---------|---------|---------|---------|-3-------|

[Intro]
 
C  Em    Am  G
F  Am/E  Dm  G
 
[Primeira Parte]
 
            C                      Em                   Am
Baby really hurt me, crying in the taxi, he don't wanna know me
                     G                        F
Says he made the big mistake of dancing in my storm 
Am/E             Dm G
     Says it was poison
 
                C             Em                      Am
So I guess I go home into the arms of the girl that I love
                G                  F
The only love I haven't screwed up
                 Am/E               Dm          G
She's so hard to please but she's a forest fire
 
        C                         Em                       Am
I do my best to meet her demands, play at romance, we slow dance in the living room
    G                         F
But all that a stranger would see
       Am/E          Dm                G
Is one girl swaying alone stroking her cheek
 
[Refrão 1]
 
     C             Em              Am
They say, you're a little much for me
         G      F
You're a liability
         Am/E            Dm  G
You're a little much for me
 
             C                Em            Am
So they pull back, make other plans, I understand
      G      F
I'm a liability
        Am/E           Dm
Get you wild, make you leave
      G               Am             G    F
I'm a little much for eh, a-na-na-na everyone
 
[Refrão 2]
 
          C       Em                Am
The truth is I am toy that people enjoy
                G                    F
'Til all of the tricks don't work anymore 
Am/E                   Dm       G
     And then they are bored of me
 
                   C                          Em
I know that it's exciting running through the night but
              Am                  G                 F
Every perfect summer's eating me alive until you're gone
Am/E        Dm    G
     Better on my own
 
[Refrão 2]
 
     C             Em              Am
They say, you're a little much for me
         G      F
You're a liability
         Am/E            Dm  G
You're a little much for me
 
             C                Em            Am
So they pull back, make other plans, I understand
      G      F
I'm a liability
        Am/E           Dm
Get you wild, make you leave
      G               Am             G    F
I'm a little much for eh, a-na-na-na everyone
 
[Final]
 
Em            Am            G             F
They're gonna watch me disappear into the sun
       Em        Am            G             F
You're all gonna watch me disappear into the sun
Composição de Jack Antonoff / Lorde
Colaboração e revisão:
  • Thiago Oliveira
  • Katarina Lima
2.744 exibições
    • ½ Tom
    • A
    • Bb
    • B
    • C
    • Db
    • D
    • Eb
    • E
    • F
    • F#
    • G
    • Ab
  • Adicionar à lista

    0 comentários

    Ver todos os comentários

    Conseguiu tocar?

    2 Tocaram 1 Ainda não

    Grave um vídeo tocando Liability e nos envie!

    00:00 / 00:00
    Outros vídeos desta música
    Repetir Qualidade Automático
    Outros vídeos desta música
    00:00 / 00:00
    Automático

    Cifra Club Pro

    Aproveite o Cifra Club com benefícios exclusivos e sem anúncios
    Cifra Club Pro
    Aproveite o Cifra Club com benefícios exclusivos e sem anúncios
    OK