Cifra Club

Dime que sí

Los De Adentro

Cifra: Principal (violão e guitarra)
tom: Bm
INTRO

E|--2--2--------2--2-------2--------3--3------|
B|--3----3------3----3-----3--3-----3----3----|
G|--2------2----3------3---4----4---4---------|
D|--0-----------0----------4--------5---------|
A|----------------------------------5---------|
E|----------------------------------3---------|

E|--0--0---------0--0-------------------------|
B|--0----0-------3--2-------------------------|
G|--0------0-----2----------------------------|
D|--2------------2----------------------------|
A|--2------------0----------------------------|
E|--0-----------------------------------------|

VERSO 1

E|-----------------------------------------------|
B|----------------------------3------------------|
G|--------4--------3--------4----------1---------| x 2
D|------5--------4--------4----------2-----------|
A|----5--------4--------2----------2-------------|
E|--3--------2-------------------0---------------|

E|-----------------------------------------------|
B|-----------------------------------------------|
G|--------4--------6-----------------------------|
D|------5--------7-------------------------------|
A|----5--------7---------------------------------|
E|--3--------5-----------------------------------|

CORO

E|--5---2---5---2---5---2---5---2---|
B|----3---3---3---3---3---3---3---3-|
G|----------------------------------|
D|----------------------------------|
A|----------------------------------|
E|----------------------------------|
                                                      x 2
E|-5---3---5---3---7---5---3---3p2h3p2-|
B|---3---3---3---3---3---3---3---------|
G|-------------------------------------|
D|-------------------------------------|
A|-------------------------------------|
E|-------------------------------------|

Aqui hace los dos primeros acordes de la intro.

VERSO 2

E|-----------------------------------------------|
B|----------------------------3------------------|
G|--------4--------3--------4----------1---------| x 2
D|------5--------4--------4----------2-----------|
A|----5--------4--------2----------2-------------|
E|--3--------2-------------------0---------------|

E|------------------------------------------------|
B|--------------------------3---------------------|
G|--------4--------3------4----------4--------6---|
D|------5--------4------4----------5--------7-----|
A|----5--------4------2----------5--------7-------|
E|--3--------2-----------------3--------5---------|

CORO

E|--5---2---5---2---5---2---5---2---|
B|----3---3---3---3---3---3---3---3-|
G|----------------------------------|
D|----------------------------------|
A|----------------------------------|
E|----------------------------------|
                                                      x 2
E|-5---3---5---3---7---5---3---3p2h3p2-|
B|---3---3---3---3---3---3---3---------|
G|-------------------------------------|
D|-------------------------------------|
A|-------------------------------------|
E|-------------------------------------|


G  O

E|--9/10-9-7------------------------------------|
B|-----------10-8-7-10/11-10-8-7----------------|
G|-------------------------------9-7------------|
D|----------------------------------------------|
A|----------------------------------------------|
E|----------------------------------------------|

E|-9/10-9-7-------------------------------------------------|
B|----------10-8-7-10-8-7-----------------------------------|
G|------------------------9b11-9-9b11-9-6h7-----4h6---------|
D|------------------------------------------7-5-----7-4-----|
A|----------------------------------------------------------|
E|----------------------------------------------------------|

En este puente no van punteos ni nada, solo acordes.

Hace un último coro que termina en Re Mayor.




Y ahora las letras con los acordes


Intro


D     Daug      Bm      G        Em       A


Verso


G           F#            Bm             E
Nos alejamos tanto que el tiempo borro tu rastro

G                        F# 
Del cielo la tierra y el pasto,

Bm                        E
no encuentro algo que me lleve a ti

G              A
Por eso tengo que decirte


Coro

D  D/C#   Bm       A          G
Dime que si, que a mi lado fuiste feliz

         Em            A
Que descubriste que el amor no es asi

D  D/C#   Bm       A          G
Dime que si, que a mi lado fuiste feliz

           Em     A
A pesar de todo fue asi


D     Daug


Verso

G          F#               Bm                 E
Paso a paso recorro lo que en un tiempo fue el sendero el camino

G           F#              Bm                 E
A ver si me juega el destino y te pone en mi camino

G                  F#                Bm
Recuerdos que se desvanecen al parecer deslizando

G              A
Mis palabras en tu piel


Coro

D  D/C#   Bm       A          G
Dime que si, que a mi lado fuiste feliz

         Em            A
Que descubriste que el amor no es asi

D  D/C#   Bm       A          G
Dime que si, que a mi lado fuiste feliz

           Em     A
A pesar de todo fue asi


Solo


D     Daug       Bm       G        Em A


Puente

Bm    Bm/A       G     F# 
Y miro al cielo y lo se

Bm    Bm/A       G      A
Que jamas te volveria ver


Coro


D  D/C#   Bm       A          G
Dime que si, que a mi lado fuiste feliz

         Em            A
Que descubriste que el amor no es asi

D  D/C#   Bm       A          G
Dime que si, que a mi lado fuiste feliz

           Em     A              D
A pesar de todo fue asi

****ACORDES RAROS****
 D/C#      Bm/A
E|-2-| |-2-|
B|-3-| |-3-|
G|-2-| |-4-|
D|-x-| |-4-|
A|-4-| |-0-|
E|---| |---|
00:00 / 00:00
Outros vídeos desta música
Repetir
Outros vídeos desta música
Compositor não encontrado.
    • ½ Tom
    • Am
    • Bbm
    • Bm
    • Cm
    • C#m
    • Dm
    • Ebm
    • Em
    • Fm
    • F#m
    • Gm
    • G#m
  • Adicionar à lista

    0 comentários

    Ver todos os comentários

    Conseguiu tocar?

    0 Tocaram 0 Ainda não

    Grave um vídeo tocando Dime que sí e nos envie!

    00:00 / 00:00

    Cifra Club Pro

    Aproveite o Cifra Club com benefícios exclusivos e sem anúncios
    Cifra Club Pro
    Aproveite o Cifra Club com benefícios exclusivos e sem anúncios
    OK