Cifra Club

No más

Los De Adentro

Cifra: Principal (violão e guitarra)
tom: E
               E             B                  F#m
E|-------------------------------|----------------------|
B|-------------9b--12-9----------|----------------------|
G|-9/11/9-9h11----------11-9-11b-|---8-9-11-9-8----6----|
D|-------------------------------|-9------------7-----7-|
A|-------------------------------|----------------------|
E|-------------------------------|----------------------|

            A      B           E            B
E|---------------------------|------------------------|
B|-----------------7------12-|------------------------|
G|-8/11-9-6-4--4/6---6/11----|-8/9-8--------8/9-8-11b-|
D|---------------------------|-------9-4-5------------|
A|---------------------------|------------------------|
E|---------------------------|------------------------|

   F#m                                      A             B
E|-12h14-12-14b--12/14-12-----------------|---------------------------|
B|------------------------14--12/14-12----|---------------7-9-7-------|
G|-------------------------------------14-|-----------6-9-------9-6-9-|
D|----------------------------------------|-------6-9-----------------|
A|----------------------------------------|---7-9---------------------|
E|----------------------------------------|-9-------------------------|
00:00 / 00:00
Outros vídeos desta música
Repetir
Outros vídeos desta música
Composição de Eliuth martinez, joe carvajal (jose matera)
12 exibições
    • ½ Tom
    • A
    • Bb
    • B
    • C
    • Db
    • D
    • Eb
    • E
    • F
    • F#
    • G
    • Ab
  • Adicionar à lista

    0 comentários

    Ver todos os comentários

    Conseguiu tocar?

    0 Tocaram 0 Ainda não

    Grave um vídeo tocando No más e nos envie!

    00:00 / 00:00

    Cifra Club Pro

    Aproveite o Cifra Club com benefícios exclusivos e sem anúncios
    Cifra Club Pro
    Aproveite o Cifra Club com benefícios exclusivos e sem anúncios
    OK