Enviar cifraEntrar

A Flor

Los Hermanos

Cifra: Principal
exibições 803.035
Tom: C
(intro) (solo de teclado) Abm C#m  C#m/B  Abm  C#m  Ebm

(solo do teclado)

E|---------------------------------------|
B|---7--5----------5-------7--5----------|  (4x)
G|--------8--6--8-----8--6-------8--6--8-|
D|---------------------------------------|
A|---------------------------------------|
E|---------------------------------------|


(solo do sopro)

E|-----6-7-9--7-6--------9-7-6~~-----6-7-9--7-6-----------|
B|--9-------------9~~--------------9-------------9~~------|
G|-----------------------------------------------------8~~|
D|--------------------------------------------------------|
A|--------------------------------------------------------|
E|--------------------------------------------------------|


Abm                         C#m         C#m/B
Ouvi dizer do teu olhar ao ver a flor
Abm                               C#m       C#m/B
Não sei porque achou ser de um outro rapaz
C#m       F#           B      B/Bb  Abm  Abm/F#
Foi capaz de se entregar...
          C#m           F#            E
Eu fiz de tudo pra ganhar você pra mim...
           Em
mas mesmo assim...

              C#m      C#m/B   Abm         C#m   C#m/B
Minha flor serviu pra que você achasse alguém
           C#m            F#          B     B/Bb  Abm  Abm/F#
Um outro alguém que me tomou o seu amor...
          C#m         F#       E
Eu fiz de tudo pra você perceber...
        Em
que era eu...

(solo do sopro)

  Abm    Dbm   C#m/B
B|----------------|  (6x)
G|-4-3---1-4-6-4--|
D|-----4----------|


Durante o solo do sopro, na guitarra, a partir da terceira vez:


E|----------------9-7-|
B|---12-11--9-12------|  (repete até o fim do solo)
G|--------11----------|


            C#m    C#m/B      Abm             C#m  C#m/B
Tua flor me deu alguém pra amar enquanto a mim
      C#m            F#             B     B/Bb  Abm  Abm/F#
Você assim eu por final sem meu lugar...
        C#m         F#            Abm C#m
Eu tive tudo sem saber quem era eu


E|-----6-7-9--7-6--------9-7-6~~-|
B|--9-------------9~~------------|


C#m/B          Abm            C#m C#m/B
Eu que nunca amei a ninguém


E|---6-7-9--7-6-----------|
B|-9-------------9~~------|
G|---------------------8~~|


Abm                   C#m F#
Pude então enfim amar

( Abm ) (7x)

(ao vivo)
   B  B/Bb  Abm  Abm/F#  C#m  G
Lalalalalalalalalalalalala...
  • 1
  • 2
  • 3
  • 4
  • 5
  • 6
  • 7
  • 8
  • 9
  • 10
  • 11
  • 12
    Acordes para:

      0 comentários

        mostrar mais comentários

        Conseguiu tocar?

        35tocaram0ainda não

        Grave um vídeo tocando A Flor e mande pra gente!

        00:00 / 00:00
        outros vídeos desta música
        repetirqualidadeautomática
        • automática
        Outro vídeos desta música
          00:00 / 00:00
          automática
          • automática
          Acordes para:violão e guitarra
          dificuldadeexibiçõescontribuições
          1 versão de Tab de baixoexibiçõescontribuições
          fecharplay/pause subir/descer velocidade
            acordes
            fechar
            OK
            Feedback