Cifra Club

Além do Que Se Vê

Los Hermanos

Cifra: Principal
exibições 511.545
Tom: A
[Intro]

E|-----------------------------------|
B|-----------------------------------|
G|-------------------------------1---|
D|-------------------------------2---|
A|-0-0--2---4-3-2--4-3-2---0-0---2---|
E|-------------------------------0---|

 A7+  Bm7
Mo---ça 
C#m7  Cm7  Bm7 C#m7  Cm7   E       A7+
Olha      só   o   que eu te escrevi

E          A7+  Bm7
É preciso for--ça 

   C#m7  Cm7  Bm7   C#m7  Cm7  F#7
Pra    son--har e per--ce|----ber

      Bm7      E    Bm7     Dm  D4  Dm
Que a estrada vai além do que  se  vê

                    

[Am  G  Dm  G]
[E7(b9)  E7  Dm]

Sei que a tua solidão me dói
e que é difícil ser feliz
mas do que somos todos nós
você supõe o céu
Sei que o vento que entortou a flor
passou também por nosso lar
e foi você quem desviou
com golpes de pincel

E|-----------------------------------|
B|-----------------------------------|
G|-------------------------------1---|
D|-------------------------------2---|
A|-0-0--2---4-3-2--4-3-2---0-0---2---|
E|-------------------------------0---|

Eu sei, é o amor que ninguém mais vê
Deixa eu ver a moça
Toma o teu, voa mais
que o bloco da família vai atrás

[Am  G  Dm  G]
[E7(b9)  E7  Dm]
 
Põe mais um na mesa de jantar
por que hoje eu vou pra aí te ver
e tira o som dessa TV
pra gente conversar
Diz pro bamba usar o violão
pede pro Tico me esperar
e avisa que eu só vou chegar
no último vagão

E|-----------------------------------|
B|-----------------------------------|
G|-------------------------------1---|
D|-------------------------------2---|
A|-0-0--2---4-3-2--4-3-2---0-0---2---|
E|-------------------------------0---|

É bom te ver sorrir
Deixa vir à moça
que eu também vou atrás
e a banda diz: assim é q se faz!

Am  F5

[Am  G  Dm  G]
[E7(b9)  E7  Dm]
Acordes para:
    Composição: Marcelo CameloColaboração e revisão:

    0 comentários

      mostrar mais comentários

      Conseguiu tocar?

      13tocaram2ainda não

      Grave um vídeo tocando Além do Que Se Vê e mande pra gente!

      00:00 / 00:00
      outros vídeos desta música
      repetirqualidadeautomática
      Outro vídeos desta música
        00:00 / 00:00
        automática
        OK