Cifra Club

Além do Que Se Vê

Los Hermanos

Cifra: Principal (violão e guitarra)
exibições 531.277
Tom: A
[Intro]

E|-----------------------------------|
B|-----------------------------------|
G|-------------------------------1---|
D|-------------------------------2---|
A|-0-0--2---4-3-2--4-3-2---0-0---2---|
E|-------------------------------0---|

 A7+  Bm7
Mo---ça
C#m7  Cm7  Bm7 C#m7  Cm7   E       A7+
Olha      só   o   que eu te escrevi

E          A7+  Bm7
É preciso for--ça

     C#m7  Cm7  Bm7   C#m7  Cm7  F#7
Pra    son--har e per--ce|----ber

      Bm7      E    Bm7     Dm  D4  Dm
Que a estrada vai além do que  se  vê

      Am     G    Dm     G   E7(9-)    E7    Dm
E|--8-----7-----5-----3-------------7-----5-------|
B|--10----8-----6-----3-----6-------9-----6-------|
G|--9-----9-----7-----4-----7-------7-----7-------|
D|--------------7-----5-----6-------9-----7-------|
A|--------------5-----5-----7-------7-----5-------|
E|--------------------3---------------------------|

 Am  G  Dm  G  E7(9-)  E7 Dm
Sei que a tua solidão me dói
Am  G  Dm  G     E7(9-)  E7 Dm
E que é difícil ser feliz
 Am  G   Dm   G   E7(9-)  E7 Dm
Mas do que somos todos nós
   Am    G  Dm  G  E7(9-)  E7 Dm
Você supõe o céu
 Am   G    Dm     G    E7(9-)    E7 Dm
Sei que o vento que entortou a flor
 Am  G     Dm  G   E7(9-)  E7 Dm
Passou também por nosso lar
 Am  G   Dm  G
E foi você quem desviou
 E7(9-)  E7 Dm
Com golpes de

A7+    Bm7     C#m7  Cm7  Bm7  C#m7  Cm7    E        A7+
Pincel eu sei, é o   a----mor  que   nin---guém mais vê

Deixa eu ver a mo---ça
C#m7 Cm7   Bm7 C#m7  Cm7  F#7
Toma    o teu, vo---a    mais
       Bm7   E    Bm7  Am
Que o bloco da família vai atrás

      Am     G    Dm     G   E7(9-)    E7    Dm
E|--8-----7-----5-----3-------------7-----5-------|
B|--10----8-----6-----3-----6-------9-----6-------|
G|--9-----9-----7-----4-----7-------7-----7-------|
D|--------------7-----5-----6-------9-----7-------|
A|--------------5-----5-----7-------7-----5-------|
E|--------------------3---------------------------|

 Am   G  Dm  G  E7(9-)  E7 Dm
Põe mais um na mesa de jantar
 Am   G  Dm  G   E7(9-)  E7 Dm
Por que hoje eu vou pra aí te ver
Am G Dm   G   E7(9-)  E7 Dm
E tira o som dessa TV
  Am G Dm  G  E7(9-) E7 Dm
Pra gente conversar
 Am   G  Dm G   E7(9-)   E7  Dm
Diz pro bamba usar o violão
 Am    G  Dm   G    E7(9-) E7 Dm
Pede pro Tico me esperar
Am  G Dm  G E7(9-) E7     Dm
E avisa que eu só vou chegar
 Am   G   Dm G E7(9-) E7 Dm
No último

A7+   Bm7   C#m7     Bm7  C#m7    E  A7+
Vagão é   bom        te   ver     sorrir
E           A7+  Bm7
Deixa vir à mo---ça
C#m7   Cm7 Bm7  C#m7 Cm7  F#7
Que eu também   vou   atrás
    Bm7    E    Bm7     Am
 Assim é que se faz!

Am             Am       
Sei que a tua solidão me dói
Am           Am      
Sei daquela mesa de jantar
Acordes para:
    Composição: Marcelo Camelo Colaboração e revisão:

    0 comentários

    mostrar mais comentários

    Conseguiu tocar?

    14 tocaram 5 ainda não

    Grave um vídeo tocando Além do Que Se Vê e mande pra gente!

    00:00 / 00:00
    outros vídeos desta música
    repetir qualidade Automático
    Outros vídeos desta música
    00:00 / 00:00
    Automático
    OK