Cifra Club

Anna Júlia

Los Hermanos

Tab de baixo: Principal
exibições 127.652
Gb|------------6---------------------------------|
Db|----------6---6-------------------------------| (3x)
Ab|------4-4-------4---4h(6)-4-0-4-0--0-2-0h(2)--|
Eb|0-0-0-------------4---------------------------|


"Me achar um nada, pois sem ter seu carinho..."
Gb|-----------------------------------------------------|
Db|-----------------------------------------------------|
Ab|4--4-4--4--4--4--------------------------------------|
Eb|----------------4--4-4--4-4--5--5-5--5--5-5--7[x25]--|


Refrão: 
"Ô Anna julia..."
Gb|----------------------------------------------------------------|
Db|----------------------------------------------------------------|
Ab|-------------0--0-0-0--0-2--2-2-2--2-2--2-2-0-2-0---------------|
Eb|0--0-0--0--0----------------------------------------------------|


"Nunca acreditei...."
Gb|------------6---------------------------------|
Db|----------6---6-------------------------------| (3x)
Ab|------4-4-------4---4h(6)-4-0-4-0--0-2-0h(2)--|
Eb|0-0-0-------------4---------------------------|


"Você vai estar com um cara"
Gb|-------------------------------------------------------------|
Db|-------------------------------------------------------------|
Ab|4-4/16-16-16--16-16\-----------------------------------------|
Eb|---------------------4--4-4--4--4-4--5--5-5--5--5-5--7[x25]--|


Refrão: 
"Ô Anna julia..."
G|----------------------------------------------------------------|
D|----------------------------------------------------------------|
A|-------------0--0-0-0--0-2--2-2-2--2-2--2-2-0-2-0---------------|
E|0--0-0--0--0----------------------------------------------------|


Solo:
Gb|-----------------------|
Db|-----------------------|
Ab|----------0--0-0h(2)---|
Eb|0--0-0--0--------------|

Gb|--------------------------------------------------------------------------------------------|
Db|--------------------------------------------------------------------------------------------|
Ab|4--4-4-4-2-4---------------------------------4--4-4-4-2-4--4--4-4-4-5-4-5--5-5-5-5--7[x16]--|
Eb|-------------4--4-4-4-5-4-5--5-5-4-5-0--0--0------------------------------------------------|


"Sei que você já não quer o meu amor..."
Gb|--------------------------------------------------------------| 
Db|--------------------------------------------------------------|
Ab|4-------------4---------------4-4-4---------------------------|
Eb|--4---5---0-------4---5---0---------4-4-4--5--5-7-5-0--0-0-0--|


"Eu sei que eu não sou......"
Gb|-------------------------------|
Db|-------------------------------|
Ab|4-4-4\-------------------------|
Eb|-------4-4-4\-5--5-5-5-7[x13]--|

Refrão: 
"Ô Anna julia..."
Gb|----------------------------------------------------------------|
Db|----------------------------------------------------------------|
Ab|-------------0--0-0-0--0-2--2-2-2--2-2--2-2-0-2-0---------------|
Eb|0--0-0--0--0----------------------------------------------------|
Composição: Marcelo CameloColaboração e revisão:
  • Wellingthon Sousa
  • victor bresolin

0 comentários

    mostrar mais comentários
    00:00 / 00:00
    outros vídeos desta música
    repetirqualidadeautomática
    Outro vídeos desta música
      00:00 / 00:00
      automática
      OK