Cifra Club

Bárbara

Los Hermanos

Cifra: Principal (violão e guitarra)
Tom: B
[Intro] Abm  B  F#

   Abm                       B         F#              Abm       B F#
Há muito uma menina vem maltratando o coração de um amigo meu
 Abm                       B         F#              Abm       B F#
Eu acho que ela também já chorou mas também acho que já se esqueceu
Abm                       B         F#              Abm       B F#
Por que pisar num coração que ama e deixar ele sozinho
 Abm                       B         F#              Abm       B F#
Sabendo que sua vida mais que tudo necessita de carinho?

[Riff Verso]

E|---------------------|
B|---------------------|
G|--11/13-11-----------|
D|------------13-11-9--|
A|---------------------|
E|---------------------|

   E           Eb
Então eu te imploro

    Abm     F#
Oh Bárbara
              Abm      E
Não maltrate meu amigo
         B    Eb            E   F#
Pois eu sei que seu coração só pensa em
 Abm     F#
Bárbara
              Abm      E
Não maltrate meu amigo
         B    Eb            E   F#
Pois eu sei que seu coração só pensa em ti

[Riff Refrão]

E|----------------------------------|
B|---11/12-11/9-11---12/14-12p11-12-|
G|----------------------------------|
D|----------------------------------|
A|----------------------------------|
E|----------------------------------|

E|----------------------------------|
B|---11/12-11/9-11---12/14-12p11-12-|
G|----------------------------------|
D|----------------------------------|
A|----------------------------------|
E|----------------------------------|

[Riff 2]

E|---------------------------|
B|-11/12-12-14-12-11-9-------|
G|---------------------------|
D|---------------------------|
A|---------------------------|
E|---------------------------|

E|---------------------------|
B|-11/12-12-14-12-14-12-11-9-|
G|---------------------------|
D|---------------------------|
A|---------------------------|
E|---------------------------|

 Abm                       B         F#              Abm       B F#
Já alertei a ele de todos os jeitos, todo seu perigo
 Abm                       B         F#              Abm       B F#
Já disse que um dia dessa relação ele sairá ferido
 Abm                       B         F#              Abm       B F#
Já contei tragédias e mentiras a seu respeito
 Abm                       B         F#              Abm       B F#
Sei que o amor é cego e meus conselhos são sem efeito

   E           Eb
Mas mesmo assim eu imploro

    Abm     F#
Oh Bárbara
              Abm      E
Não maltrate meu amigo
         B    Eb            E   F#
Pois eu sei que seu coração só pensa em ti

[Refrão]

E|------------------------------------------|
B|-11/12-11/9-11--12/14-12p11-12--12-7-9-11-|
G|------------------------------------------|
D|------------------------------------------|
A|------------------------------------------|
E|------------------------------------------|

E|------------------------------------------|
B|-11/12-11/9-11--12/14-12p11-12--12-7-9-11-|
G|------------------------------------------|
D|------------------------------------------|
A|------------------------------------------|
E|------------------------------------------|

[Solo] Abm  F#  E  Eb

E|-16p14-16-16p14-16-16p14-16-18-16-14-11---------------------------------|
B|----------------------------------------------14-12-14-12-11-11-9-12-11-|
G|------------------------------------------------------------------------|
D|------------------------------------------------------------------------|
A|------------------------------------------------------------------------|
E|------------------------------------------------------------------------|

E|---------------------------------------------------------|
B|-12p11-12p11-12p11-12p11-12p11-14p12-14p12-14p12-14p12---|
G|---------------------------------------------------------|
D|---------------------------------------------------------|
A|---------------------------------------------------------|
E|---------------------------------------------------------|

E|---------------------------------------------|
B|-16p14-16p14-16p14-16p14-16-14-12-11-12-9~---|
G|---------------------------------------------|
D|---------------------------------------------|
A|---------------------------------------------|
E|---------------------------------------------|

E|--------------------------------16-14-16-14-16-14-------------------------|
B|-16-14-16-14-16-14-16-14-16----------------------14-16-14-12-11-12-11-9~--|
G|--------------------------------------------------------------------------|
D|--------------------------------------------------------------------------|
A|--------------------------------------------------------------------------|
E|--------------------------------------------------------------------------|

E|-------/11-----------------/11------------------|
B|-11-9------11-9/12--11-9-----11-9/12~--12-11~---|
G|------------------------------------------------|
D|------------------------------------------------|
A|------------------------------------------------|
E|------------------------------------------------|

E|-16p14-16p14-16p14-16p14-16-14-16-19-18---16p14-16p14-16p14----14--------------|
B|----------------------------------------------------------------------16----16-|
G|-------------------------------------------------------------------------------|
D|-------------------------------------------------------------------------------|
A|-------------------------------------------------------------------------------|
E|-------------------------------------------------------------------------------|

E|-----------------------------------------------------------------------|
B|-14-12-16~---12--16--14--12--12-16-14-12------12---16-14-12------------|
G|----------------------------------------------13-13---13----------13~--|
D|-----------------------------------------------------------------------|
A|-----------------------------------------------------------------------|
E|-----------------------------------------------------------------------|

E|------------14-16-19-18-16-14-16~----|
B|--16-14-16---------------------------|
G|-------------------------------------|
D|-------------------------------------|
A|-------------------------------------|
E|-------------------------------------|
exibições 110.078
Acordes para:
    Composição: Marcelo Camelo Colaboração e revisão:

    0 comentários

    mostrar mais comentários

    Conseguiu tocar?

    9 tocaram 1 ainda não

    Grave um vídeo tocando Bárbara e mande pra gente!

    00:00 / 00:00
    outros vídeos desta música
    repetir qualidade Automático
    Outros vídeos desta música
    00:00 / 00:00
    Automático
    OK