Cifra Club

Descoberta

Los Hermanos

Cifra: Principal (violão e guitarra)
Tom: G
(versão 1)

(versos  - "palhetadas" de baixo p/ cima)

         Am  E   Am  E   Am  E   Am  E  (até) C (até) G
E|-5-5-4-4-5-5-4-4-5-5-4-4-5-5-4-4-...-----...-----|
B|-5-5-5-5-5-5-5-5-5-5-5-5-5-5-5-5-...-----...-----|
G|-5-5-4-4-5-5-4-4-5-5-4-4-5-5-4-4-...-5-5-...-----|
D|---------------------------------...-5-5-...-5-5-|
A|---------------------------------...-3-3-...-5-5-|
E|---------------------------------...-----...-3-3-|
   ^ ^ ^ ^ ^ ^ ^ ^ ^ ^ ^ ^ ^ ^ ^ ^    (normal  a troca é +/- no ritmo do verso
Um homem bem mais feliz)

( Am E )
Sai, que já não te quero mais
                    C
Sai, porque hoje eu descobri
                    G
Que posso viver sem ti
                   ( Am E )
Que posso viver em paz

Muito bem sem teu amor
                    C
Sai, porque agora eu sou
                    G
Um homem bem mais feliz
                   ( Am E )
Um homem bem mais feliz

( Am E )
Vai, hoje a lagrima não cai
                    C
Sei agora o mal que faz
                    G
Dar amor a quem não ama,
                   ( Am E )
Dar amor a quem só traz

Ódio e desilusão
                    C
Que maltrata um coração
                G
Precisando de carinho
                ( Am* D )
Precisando de carinho

|-------------------
|-------------------         (baixo, mas dá pra fazer no violao ou guitarra)
|12-11-10-9-8-7-6-5-  (5x)
|------------------5

     Am *
Minha amada
       G                       Am*
Não consigo mais viver ao lado teu
       G                       C
Não consigo mais te dar o meu amor
                             Dm
Hoje vivo muito bem sem tua boca
    E                        Am *
E sozinho não conheço mais a dor


(versão 2)

(intro) G#m  D# (6x)    G#m
(riff 1)
E|-------------------------------------------------------------------------------|
B|-------------------------------------------------------------------------------|
G|-------------------6-8-9-8-9-8-9-8-9-8----6-9-8-6---6-9-8-6---6-9-8-6----------|
D|---9-8-9-8-9-8-9-8----------------------------------------------------9-8-9----|
A|-------------------------------------------------------------------------------|
E|-------------------------------------------------------------------------------|

(G#m  D#)
Sai,      que já não te quero mais       B/-9-8-7-6-5-4...
                          B
Sai, porque hoje eu descobri
                    F#
Que posso viver sem ti
                  (G#m  D#)
Que posso viver em paz

Muito bem sem teu amor                   B/-9-8-7-6-5-4...
                      B
Sai, porque agora eu sou
                    F#
Um homem bem mais feliz
                    (G#m  C#m) (3x)    G#m
Um homem bem mais feliz
                    (G#m  C#m) (3x)    D#

(solo 2x)

E|-7p6-7p6-7p6-7p6-7p6---6-7-9-7p6-7p6-7p6-7p6---6---|
B|---------------------9-----------------------9---8-|

(G#m  D#)
Vai,      hoje a lágrima não cai     B/-9-8-7-6-5-4...
                     B
Sei agora o mal que faz
                    F#
Dar amor a quem não ama
                   (G#m  D#)
Dar amor a quem só traz

Ódio e desilusão                     B/-9-8-7-6-5-4...
                    B
Que maltrata o coração
                F#
Precisando de carinho
                (G#m  C#m) (3x)    G#m
Precisando de carinho
                (G#m  C#m) (3x)    D#

(solo 2x)

E|-7p6-7p6-7p6-7p6-7p6---6-7-9-7p6-7p6-7p6-7p6---6---|
B|---------------------9-----------------------9---8-|

       G#m
Minha amada
       F#                      G#m
Não consigo mais viver ao lado teu
       F#                       B
Não consigo mais te dar o meu amor
                           C#m
Hoje vivo muito bem sem tua boca
    D#                       G#m
E sozinho não conheço mais a dor

(solo) G#m  D#

(riff final)
G|-13-12-11-10-9-8-7-6-|

G|-13-12-11-10-9-8-7-13-12-11-10-9-8-7-6---|
D|---------------------------------------6-|

(refrão)
exibições 199.435
Acordes para:
    Composição: Marcelo Camelo Colaboração e revisão:

    0 comentários

    mostrar mais comentários

    Conseguiu tocar?

    10 tocaram 0 ainda não

    Grave um vídeo tocando Descoberta e mande pra gente!

    00:00 / 00:00
    outros vídeos desta música
    repetir qualidade Automático
    Outros vídeos desta música
    00:00 / 00:00
    Automático
    OK