Cifra Club

Aprenda

Morena

Los Hermanos

Cifra: Principal (violão e guitarra)
Quer fazer aulas de música com a gente? Responda essas perguntas
e nos ajude nesse projeto! →
tom: Bm
[Intro] D7+  Em7 

E|----------------------------------------------------|
B|----------------------------------------------------|
G|-------------4---6----------------------------------|
D|----4---7-------------------------------------------|
A|----------------------------------------------------|
E|----------------------------------------------------|

( D7+  Em7 )

E|----------------------------------------------------|
B|--8-7---7-------------------------------------------|
G|------9---------------------------------------------|
D|----------------------------------------------------|
A|----------------------------------------------------|
E|----------------------------------------------------|

( D7+  Em7 )

E|--7-7-7h9-7-----------------------------------------|
B|--7-7-7---7-----------------------------------------|
G|----------------------------------------------------|
D|----------------------------------------------------|
A|----------------------------------------------------|
E|----------------------------------------------------|

( D7+  Em7 )

E|----------------------------------------------------|
B|--8-7-----------------------------------------------|
G|------9-4-6-----------------------------------------|
D|----------------------------------------------------|
A|----------------------------------------------------|
E|----------------------------------------------------|

( D7+  Em7 )

E|--7-7-7h9-7-----------------------------------------|
B|--7-7-7---7-----------------------------------------|
G|----------------------------------------------------|
D|----------------------------------------------------|
A|----------------------------------------------------|
E|----------------------------------------------------|

[Primeira Parte]

D7+
É, morena, ta tudo bem
 Em7              G      G7+    A7   A#°         F7+
Sereno é quem tem a paz de estar em par com Deus
 Bb        F7+   Bb             Dm7  Gm7
Pode rir agora que o fio da maldade se enrola

[Segunda Parte]

Bm7             Bm7+
   Pra nós todo amor do mundo
F#7
   Pra eles o outro lado
         A
Eu digo malmequer
                        F#°
Ninguém escapa ao peso de viver assim
 B7
Ser assim

[Refrão]

Em7       A7                 F#m
Eu não, prefiro assim com você, juntinho
 Bm7             Em7
Sem caber de imaginar
  A7
Até o fim raiar

( D7+  Em7 )

E|----------------------------------------------------|
B|--8-7---7-------------------------------------------|
G|------9---------------------------------------------|
D|----------------------------------------------------|
A|----------------------------------------------------|
E|----------------------------------------------------|

( D7+  Em7 )

E|--7-7-7h9-7-----------------------------------------|
B|--7-7-7---7-----------------------------------------|
G|----------------------------------------------------|
D|----------------------------------------------------|
A|----------------------------------------------------|
E|----------------------------------------------------|

( D7+  Em7 )

E|----------------------------------------------------|
B|--8-7-----------------------------------------------|
G|------9-4-6-----------------------------------------|
D|----------------------------------------------------|
A|----------------------------------------------------|
E|----------------------------------------------------|

[Solo]

E|-----------------------------------17---------------|
B|---5-----10~--11-12~--9-12-13-14~-----14-15-16-17~--|
G|-2---4~---------------------------------------------|
D|----------------------------------------------------|
A|----------------------------------------------------|
E|----------------------------------------------------|

E|-19-------------------------------------------------|
B|----17-18-19~--19-20-17-19-15-17-15-14-14s15-14~----|
G|----------------------------------------------------|
D|----------------------------------------------------|
A|----------------------------------------------------|
E|----------------------------------------------------|

E|----------------------------------------------------|
B|-10----10s12~--14s11--------------------------------|
G|----11---------------11-----------------------------|
D|------------------------12--7/9---------------------|
A|----------------------------------------------------|
E|----------------------------------------------------|

[Segunda Parte]

Bm7             Bm7+
   Pra nós todo amor do mundo
F#7
   Pra eles o outro lado
         A
Eu digo malmequer
                        F#°
Ninguém escapa ao peso de viver assim
 B7
Ser assim

[Refrão]

Em7       A7                 F#m
Eu não, prefiro assim com você, juntinho
 Bm7             Em7
Sem caber de imaginar
  A7
Até o fim raiar

[Final] D7+  Em7 

E|----------------------------------------------------|
B|----------------------------------------------------|
G|----------------------------------------------------|
D|--------7---9---------------------------------------|
A|-7---9----------------------------------------------|
E|----------------------------------------------------|

( D7+  Em7 )

E|----------------------------------------------------|
B|--8-7---7-------------------------------------------|
G|------9---------------------------------------------|
D|----------------------------------------------------|
A|----------------------------------------------------|
E|----------------------------------------------------|

( D7+  Em7 )

E|--7-7-7h9-7-----------------------------------------|
B|--7-7-7---7-----------------------------------------|
G|----------------------------------------------------|
D|----------------------------------------------------|
A|----------------------------------------------------|
E|----------------------------------------------------|

( D7+  Em7 )

E|----------------------------------------------------|
B|--8-7-----------------------------------------------|
G|------9-4-6-----------------------------------------|
D|----------------------------------------------------|
A|----------------------------------------------------|
E|----------------------------------------------------|

( D7+  Em7 )

E|--7-7-7h9-7-----------------------------------------|
B|--7-7-7---7-----------------------------------------|
G|----------------------------------------------------|
D|----------------------------------------------------|
A|----------------------------------------------------|
E|----------------------------------------------------|
Composição de Marcelo Camelo
671.718 exibições
    • ½ Tom
    • Am
    • Bbm
    • Bm
    • Cm
    • C#m
    • Dm
    • Ebm
    • Em
    • Fm
    • F#m
    • Gm
    • G#m
  • Adicionar à lista

    0 comentários

    Ver todos os comentários

    Conseguiu tocar?

    37 Tocaram 3 Ainda não

    Grave um vídeo tocando Morena e nos envie!

    00:00 / 00:00
    Outros vídeos desta música
    Repetir Qualidade Automático
    Outros vídeos desta música
    00:00 / 00:00
    Automático

    Cifra Club Pro

    Aproveite o Cifra Club com benefícios exclusivos e sem anúncios
    Cifra Club Pro
    Aproveite o Cifra Club com benefícios exclusivos e sem anúncios
    OK