Cifra Club

Morena

Los Hermanos

Cifra: Principal (violão e guitarra)
exibições 615.579
Tom: A
[Intro] D7+  Em7 

E|----------------------------------------------------|
B|----------------------------------------------------|
G|----------------------------------------------------|
D|--------7---9---------------------------------------|
A|-7---9----------------------------------------------|
E|----------------------------------------------------|

( D7+  Em7 )

E|----------------------------------------------------|
B|--8-7---7-------------------------------------------|
G|------9---------------------------------------------|
D|----------------------------------------------------|
A|----------------------------------------------------|
E|----------------------------------------------------|

( D7+  Em7 )

E|--7-7-7h9-7-----------------------------------------|
B|--7-7-7---7-----------------------------------------|
G|----------------------------------------------------|
D|----------------------------------------------------|
A|----------------------------------------------------|
E|----------------------------------------------------|

( D7+  Em7 )

E|----------------------------------------------------|
B|--8-7-----------------------------------------------|
G|------9-4-6-----------------------------------------|
D|----------------------------------------------------|
A|----------------------------------------------------|
E|----------------------------------------------------|

( D7+  Em7 )

E|--7-7-7h9-7-----------------------------------------|
B|--7-7-7---7-----------------------------------------|
G|----------------------------------------------------|
D|----------------------------------------------------|
A|----------------------------------------------------|
E|----------------------------------------------------|

[Primeira Parte]

D7+
É, morena, ta tudo bem
 Em7              G      G7+    A7           F7+
Sereno é quem tem a paz de estar em par com Deus
 Bb        F7+   Bb             Dm7  Gm7
Pode rir agora que o fio da maldade se enrola

[Segunda Parte]

Bm7             Bm7+
   Pra nós todo amor do mundo
G/B         F#7
   Pra eles o outro lado
         A
Eu digo malmequer
                        F#°
Ninguém escapa ao peso de viver assim
 B7
Ser assim

[Refrão]

Em7       A7                 F#m
Eu não, prefiro assim com você, juntinho
 B7            Em7
Sem caber de imaginar
  A7
Até o fim raiar

( D7+  Em7 )

E|----------------------------------------------------|
B|--8-7---7-------------------------------------------|
G|------9---------------------------------------------|
D|----------------------------------------------------|
A|----------------------------------------------------|
E|----------------------------------------------------|

( D7+  Em7 )

E|--7-7-7h9-7-----------------------------------------|
B|--7-7-7---7-----------------------------------------|
G|----------------------------------------------------|
D|----------------------------------------------------|
A|----------------------------------------------------|
E|----------------------------------------------------|

( D7+  Em7 )

E|----------------------------------------------------|
B|--8-7-----------------------------------------------|
G|------9-4-6-----------------------------------------|
D|----------------------------------------------------|
A|----------------------------------------------------|
E|----------------------------------------------------|

[Solo]

E|-----------------------------------17---------------|
B|---5-----10~--11-12~--9-12-13-14~-----14-15-16-17~--|
G|-2---4~---------------------------------------------|
D|----------------------------------------------------|
A|----------------------------------------------------|
E|----------------------------------------------------|

E|-19-------------------------------------------------|
B|----17-18-19~--19-20-17-19-15-17-15-14-14s15-14~----|
G|----------------------------------------------------|
D|----------------------------------------------------|
A|----------------------------------------------------|
E|----------------------------------------------------|

E|----------------------------------------------------|
B|-10----10s12~--14s11--------------------------------|
G|----11---------------11-----------------------------|
D|------------------------12--7/9---------------------|
A|----------------------------------------------------|
E|----------------------------------------------------|

[Segunda Parte]

Bm7             Bm7+
   Pra nós todo amor do mundo
G/B         F#7
   Pra eles o outro lado
         A
Eu digo malmequer
                        F#°
Ninguém escapa ao peso de viver assim
 B7
Ser assim

[Refrão]

Em7       A7                 F#m
Eu não, prefiro assim com você, juntinho
 B7            Em7
Sem caber de imaginar
  A7
Até o fim raiar

[Final] D7+  Em7 

E|----------------------------------------------------|
B|----------------------------------------------------|
G|----------------------------------------------------|
D|--------7---9---------------------------------------|
A|-7---9----------------------------------------------|
E|----------------------------------------------------|

( D7+  Em7 )

E|----------------------------------------------------|
B|--8-7---7-------------------------------------------|
G|------9---------------------------------------------|
D|----------------------------------------------------|
A|----------------------------------------------------|
E|----------------------------------------------------|

( D7+  Em7 )

E|--7-7-7h9-7-----------------------------------------|
B|--7-7-7---7-----------------------------------------|
G|----------------------------------------------------|
D|----------------------------------------------------|
A|----------------------------------------------------|
E|----------------------------------------------------|

( D7+  Em7 )

E|----------------------------------------------------|
B|--8-7-----------------------------------------------|
G|------9-4-6-----------------------------------------|
D|----------------------------------------------------|
A|----------------------------------------------------|
E|----------------------------------------------------|

( D7+  Em7 )

E|--7-7-7h9-7-----------------------------------------|
B|--7-7-7---7-----------------------------------------|
G|----------------------------------------------------|
D|----------------------------------------------------|
A|----------------------------------------------------|
E|----------------------------------------------------|
Acordes para:

    0 comentários

    mostrar mais comentários

    Conseguiu tocar?

    33 tocaram 3 ainda não

    Grave um vídeo tocando Morena e mande pra gente!

    00:00 / 00:00
    outros vídeos desta música
    repetir qualidade Automático
    Outros vídeos desta música
    00:00 / 00:00
    Automático
    OK