Cifra Club

Primavera

Los Hermanos

Cifra: Principal
exibições 471.052
Tom: G#
[Intro]  Eb


Ab            Dbm         Ab        Dbm
   Primavera se foi e com ela meu amor
Ab               Dbm         Ab              Dbm
   Quem me dera poder consertar tudo que eu fiz
Ab               Dbm           Ab        Dbm
   O perfume que andava com o vento pelo ar
Ab            Dbm               Ab           Dbm
   Primavera soprando pra um caminho mais feliz

         Ab          Bbm           Cm
 Mais feliz, pois a rosa que se esconde
       Db            Ab        Bbm
 No cabelo mais bonito, é um grito
           Cm         Db       Eb
 Quase um mito, uma prova de amor

[Solo]  Ab  Fm  Bbm  Eb
        Ab  Fm  Bbm  Eb
        Ab  Fm  Bbm  Eb
        Db  Dbm

E|-------------------------------------------------------------------|
B|-------------------------------------------------------------------|
G|--------3-0--1-0-------------------------3-0--1-0------------------|
D|1-1-3-1----------3--1-----------1--1-3-1-----------3---------------|
A|----------------------4-3-1-3-4------------------------------------|
E|-------------------------------------------------------------------|

E|--------------------7-6-----7-6----------7-6-----7-6-----7-6-------|
B|-------------9----9-----9-6-----9-6-4--6-----9-6-----9-6-----9-6-9-|
G|8-6-5-6-8-10---10--------------------------------------------------|
D|-------------------------------------------------------------------|
A|-------------------------------------------------------------------|
E|-------------------------------------------------------------------|

Ab            Dbm          Ab        Dbm
   Primavera se foi, e com ela essa dor
Ab            Dbm          Ab  Dbm
   Se alojou no peito devagar
Ab            Dbm            Ab          Dbm
   A certeza do amor não me deixa nunca mais
Ab             Dbm            Ab     Dbm
   Primavera brilhando em seu olhar

     Ab        Bbm           Cm
 E o olhar que eu guardo na lembrança
         Db           Ab
 Ainda traz a esperança
        Bbm          Cm          Db         Eb
 De te ter ao meu ladinho numa próxima estação

[Solo]  Ab  Fm  Bbm  Eb
        Ab  Fm  Bbm  Eb
        Ab  Fm  Bbm  Eb
        Db  Dbm

E|-------------------------------------------------------------------|
B|-------------------------------------------------------------------|
G|--------3-0--1-0-------------------------3-0--1-0------------------|
D|1-1-3-1----------3--1-----------1--1-3-1-----------3---------------|
A|----------------------4-3-1-3-4------------------------------------|
E|-------------------------------------------------------------------|

E|--------------------7-6-----7-6----------7-6-----7-6-----7-6-------|
B|-------------9----9-----9-6-----9-6-4--6-----9-6-----9-6-----9-6-9-|
G|8-6-5-6-8-10---10--------------------------------------------------|
D|-------------------------------------------------------------------|
A|-------------------------------------------------------------------|
E|-------------------------------------------------------------------|

E|-------------------------------------------------------------------|
B|-------------------------------------------------------------------|
G|-------------------------------------------------------------------|
D|-5h6-6-6-6-5-3-3~--5-6-6h8-8-8-8-6-5-5~--6-8-8/10-10-10-10-8-------|
A|-------------------------------------------------------------------|
E|-------------------------------------------------------------------|

E|-------------------------------------------------------------------|
B|-------------------------------------------------------------------|
G|-------------------------------------------------------------------|
D|-6-8/10-10-10-10-8-6-8/10-10-10-10-10-10-10/11-11-11-11------------|
A|-------------------------------------------------------------------|
E|-------------------------------------------------------------------|

E|-------------------------------------------------------------------|
B|-------------------------------------------------------------------|
G|-8-8-8---8-8-8---8-8-8---8-8-8-6-5-6---8-8-8-6-6-6-5-6-5~----------|
D|-------------------------------------------------------------------|
A|-------------------------------------------------------------------|
E|-------------------------------------------------------------------|

E|-------------------------------------------------------------------|
B|-------------------------------------------------------------------|
G|-6-6-6-5-5-5-3-3-3---3-3-3/1-1-1-1---4-4/2-2-2-2--4-3~~------------|
D|-------------------------------------------------------------------|
A|-------------------------------------------------------------------|
E|-------------------------------------------------------------------|

Bb            Ebm         Bb        Ebm
   Primavera se foi e com ela meu amor
Bb               Ebm         Bb              Ebm
   Quem me dera poder consertar tudo que eu fiz
Bb               Ebm           Bb        Ebm
   O perfume que andava com o vento pelo ar
Bb            Ebm             Bb           Ebm
   Primavera soprando pra um caminho mais feliz

Bb         Gm   Cm
   Mais feliz       
        F
Mais feliz       
Primavera....primavera...primavera
Huuuuuu....Huuuuuu.....
Acordes para:

    0 comentários

      mostrar mais comentários

      Conseguiu tocar?

      26tocaram1ainda não

      Grave um vídeo tocando Primavera e mande pra gente!

      00:00 / 00:00
      outros vídeos desta música
      repetirqualidadeautomática
      Outro vídeos desta música
        00:00 / 00:00
        automática
        OK