Cifra Club

Quem Sabe

Los Hermanos

Cifra: Principal (violão e guitarra)
Tom: D#
(intro 4x) Cm  Cm/G#

(Cm  Cm/G#)
 Quem sabe o que é ter e perder alguém
 Quem sabe o que é ter e perder alguém

(riff metais)
E|--------------------------------------|
B|--------------------------------------|
G|-------------------------------13-12--|
D|-10-10-10-13--------------------------|
A|-------------10/11-11-10-11-10--------|
E|--------------------------------------|

Cm                                 Fm
 Quem sabe o que é ter e perder alguém
           Bb          Cm
Sente a dor que senti
                                      Fm
Quem sabe o que é ver quem se quer partir
        Bb               D#
E não ter pra onde ir
D#          G             Cm           G#      D#
 Faz tanta falta o teu amor   e te esperar...
     G     G#
Não sei viver sem te ter
    B                    Cm
Não dá mais pra ser      assim

(riff - metais)
E|---------9/8----------9/8----|
B|-----------------------------|
G|------8-------------8--------|
D|-9/10----------9/10----------|
A|-----------------------------|
E|-----------------------------|

Cm                                    Fm
 Quem sabe o que é ter sem querer pra si
            Bb            Cm
Não quer ver outro em mim
                           Fm
Não fala do que eu deveria ser
   Bb                      D#
Pra ser alguém mais feliz

(refrão)
( Cm  G# ) (4x)

(repete tudo)

(riff final - guitarra)
E|-----------------------------|
B|-----------------------------|
G|-----------------------------|
D|-----------------------------|
A|-------4-3-------------4-3---|
E|-1-3-4-------4---1-3-4-------|
exibições 294.951
Acordes para:
    Composição: Rodrigo Amarante Colaboração e revisão:

    0 comentários

    mostrar mais comentários

    Conseguiu tocar?

    10 tocaram 1 ainda não

    Grave um vídeo tocando Quem Sabe e mande pra gente!

    00:00 / 00:00
    outros vídeos desta música
    repetir qualidade Automático
    Outros vídeos desta música
    00:00 / 00:00
    Automático
    OK