Cifra Club

Sentimental

Los Hermanos

Cifra: Principal (violão e guitarra)
tom: F# (forma dos acordes no tom de F) Capotraste na 1ª casa
[Intro] F  Am/E  F  Am/E 
        F  Am/E  F  Am/E    
        F  Am/E  F  Am/E    

[Tab - Intro]

   F                 Am/E    
E|-----------------------------------------------------|
B|-1---1---1---1-----1---1---1---1---------------------|
G|-2---2---2---2-----2---2---2---2---------------------|
D|-3---3---3---3-----2---2---2---2---------------------|
A|-----------------------------------------------------|
E|-1-1---1---1---1---0-0---0---0---0-------------------|

[Primeira Parte] 

F                  Am/E 
 O quanto eu te falei
                F  
Que isso vai mudar
                 Am/E
Motivo eu nunca dei

[Pré-Refrão] 

Bb2           F7M/A       Bb2
  Você me avisar, me ensinar
              F7M/A     Bb2
Falar do que foi pra você
               C   C9  C6      
Não vai me livrar 

De viver

[Refrão] 

F         Am/E     
  Quem é mais 
      Dm7       A7
Sentimental que eu?
Bb2     F7M/A         Bb2     
    Eu disse e nem assim
    C       
Se pôde evitar

( F  Am/E  F  Am/E )

[Segunda Parte] 

F                  Am/E  
 De tanto eu te falar
            F         
Você subverteu 
                   Am/E
O que era um sentimento e assim

[Pré-Refrão] 

Bb2            F7M/A          
   Fez dele razão
           Bb2
Pra se perder no abismo 
    C  C9  C  C6
Que é 

Pensar e sentir

[Refrão] 

F      Am/E     
Ela é mais 
      Dm7       A7
Sentimental que eu
Bb2    F7M/A                
    Então fica bem
Bb2        C
    Se eu sofro um pouco mais

( Dm  A  Dm  A )
( Dm  A  Bb2  F/A )
( Dm  A  Bb2  Am )
( Bb2  Am  Bb2  Am  Bb2  C2 )

[Tab - Ponte]

Parte 1 De 4
   Dm               A
E|---------5----------------5--------------------------|
B|-----------6---6------------5---5--------------------|
G|-----7-------7--------6-------6----------------------| (3x)
D|---7---7------------7---7----------------------------|
A|-5---------------------------------------------------|
E|------------------5----------------------------------|

Parte 2 De 4
   Bb2     Am
E|-1-1-1---0-0-0---------------------------------------|
B|-1-1-1---1-1-1---------------------------------------|
G|-3-3-3---2-2-2---------------------------------------|
D|-3-3-3---2-2-2---------------------------------------|
A|-1-1-1---0-0-0---------------------------------------|
E|-----------------------------------------------------|
   ↓ ↓ ↓    ↓ ↓ ↓

Parte 1 De 4
   Dm               A
E|---------5----------------5--------------------------|
B|-----------6---6------------5---5--------------------|
G|-----7-------7--------6-------6----------------------|
D|---7---7------------7---7----------------------------|
A|-5---------------------------------------------------|
E|------------------5----------------------------------|

Parte 3 De 4
   Bb2       Am
E|-1-1-1-1---0-0-0-0-----------------------------------|
B|-1-1-1-1---1-1-1-1-----------------------------------|
G|-3-3-3-3---2-2-2-2-----------------------------------| (3x)
D|-3-3-3-3---2-2-2-2-----------------------------------|
A|-1-1-1-1---0-0-0-0-----------------------------------|
E|-----------------------------------------------------|
   ↓ ↓ ↓ ↑    ↓ ↓ ↓ ↑

Parte 4 De 4
   Bb2       C9
E|-1-1-1-1---0-0-0-0-----------------------------------|
B|-1-1-1-1---3-3-3-3-----------------------------------|
G|-3-3-3-3---2-2-2-2-----------------------------------|
D|-3-3-3-3---2-2-2-2-----------------------------------|
A|-1-1-1-1---0-0-0-0-----------------------------------|
E|-----------------------------------------------------|
   ↓ ↓ ↓ ↑    ↓ ↓ ↓ ↑

[Terceira Parte] 

        F            Am/E          
Eu só aceito a condição 
          Dm7       A7
De ter você só pra mim
Bb2    F7M/A        Bb2      C
   Eu sei, não é assim, mas deixa
        F            Am/E          
Eu só aceito a condição 
          Dm7       A7
De ter você só pra mim
Bb2    Am           Bb2     
   Eu sei, não é assim
     C9          F     Am/E
Mas deixa eu fingir e rir

( Dm7  A7  Bb2  F7M/A   Bb2  C )

[Final] F  Am  Dm7  A7
        Bb7M  Bb7M/A  Bb7M  Bb7M/A
        Bb7M  Bb7M/A  Bb7M  Bb7M/A
00:00 / 00:00
Outros vídeos desta música
Repetir
Outros vídeos desta música
Composição de Rodrigo Amarante
522.036 exibições
  • Simplificar cifra
    • ½ Tom
    • A
    • Bb
    • B
    • C
    • Db
    • D
    • Eb
    • E
    • F
    • F#
    • G
    • Ab
  • Adicionar à lista

    0 comentários

    Ver todos os comentários

    Conseguiu tocar?

    129 Tocaram 18 Ainda não

    Grave um vídeo tocando Sentimental e nos envie!

    Entre para oCifra Club PRO

    Tenha acesso a benefícios exclusivos no App e no Site

    • Chega de anúncios

    • Prioridade de compra em lançamentos

    • Mais recursos no app do Afinador

    • Atendimento Prioritário

    • Descontos nos produtos Cifra Club

    • Ajude a produzir mais conteúdo

    00:00 / 00:00
    Capítulos
    • Tocando a Música
    • Acordes da Introdução
    • Tocando Introdução
    • Ensinando Dedilhado Introdução
    • Ritmo Introdução
    • Dicas Primeira Parte
    • Tocando Primeira Parte
    • Acordes Pré-Refrão
    • Tocando Pré-Refrão
    • Ritmo Pré-Refrão
    • Acordes Refrão
    • Tocando Refrão
    • Ritmo Refrão
    • Tocando Ponte
    • Ensinando Ponte
    • Acordes Final
    • Tocando Terceira Parte - Final
    • Ensinando Final
    • Encerramento

    Cifra Club Pro

    Aproveite o Cifra Club com benefícios exclusivos e sem anúncios
    Cifra Club Pro
    Aproveite o Cifra Club com benefícios exclusivos e sem anúncios
    OK