Notificações Amigos pendentes

      Los Hermanos

      Sentimental

      121.249 exibições
      Tom: G
      Intro 4x: 
      
           G                   G/F#
      E|---------------------------------------|
      B|-------------------------0-------------|
      G|--------------------------2-0---0------|
      D|-------------------------------4-------|
      A|-2--------------------2----------------|
      E|-3--------------------2----------------|
      
      
      Primeira Parte:
      G                  G/F#
       O quanto eu te falei,
                      G
      que isso vai mudar,
                        G/F#
       motivo eu nunca dei
      C            C/B        C
       Você me avisar, me ensinar,
                   C/B      C
       falar do que foi pra você
                    D
      Não vai me livrar de viver
      
      Ponte:    
      G        G/F#         Em      B
       Quem é mais sentimental que eu?
      C     C/B           C       D
       Eu disse e nem assim, se pôde evitar
      
      Intro 2x: ( G  G/F# )
      
      Segunda Parte:
      G                  G/F#
       De tanto eu te falar,
                   G
       você subverteu
                          G/F#
       o que era um sentimento e assim
      C            C/B            C
       Fez dele razão, pra se perder
                     D
       no abismo que é pensar e sentir
      
      Ponte 2:
      G       G/F#         Em     B
       Ela é mais sentimental que eu 
      C   C/B      C
       Então fica bem,
              D
       se eu sofro um pouco mais
      
      Interlúdio:
      
      Parte 1 de 4
      
           Em                   B
      E|--------7-------------------------------|
      B|------8--8-8------------------7---------|
      G|----9-----9-----------------8--8-8------| (3x)  
      D|--9-----------------------9-----9-------|
      A|-7----------------------9---------------|
      E|----------------------7-----------------|
      
      
      Parte 2 de 4 
      
          C                     C/B
      E|--8----------------------8--------------|
      B|--8----------------------8--------------|
      G|--9----------------------9--------------|  
      D|--10---------------------10-------------|
      A|--10---------------------10-------------|
      E|--8----------------------7--------------|
      
      
      Parte 3 de 4
      
          Em                   B
      E|--------7-------------------------------|
      B|------8--8-8------------------7---------|
      G|----9-----9-----------------8--8-8------|    
      D|--9-----------------------9-----9-------|
      A|-7----------------------9---------------|
      E|----------------------7-----------------|
      
      
      Parte 4 de 4
      
           C                  C/B      D
      E|--8------------------8------------------|
      B|--8------------------8------------------|
      G|--9------------------9-------7----------|
      D|--10-----------------10-----------------|
      A|--10-----------------10------9----------|
      E|--8------------------7-------10---------|
      
      
      "Se ela te fala assim, com tantos rodeios, é pra te seduzir e te ver buscando o
      sentido daquilo que você ouviria displicentemente.
      Se ela te fosse direta, você a rejeitaria."
      
      Refrão:
               G           G/F#
      Eu só aceito a condição de ter
         Em        B
      você só pra mim
      C    C/B          C         D
       Eu sei, não é assim, mas deixa
               G           G/F#
      Eu só aceito a condição de ter
         Em        B
      você só pra mim
      C    C/B          C
       Eu sei, não é assim,
            D           G     G/F#    Em  B  C  C/B C D
       mas deixa eu fingir e rir
      
      Final: ( G  G/F#  Em  B  )
             ( C  C/B )
        Composição: Quatro M / Rodrigo AmaranteColaboração e revisão:
        • Ricardo
        • edsonalima
        • thai

        Comentários 1

        140 .
        • Douglas Douglas: Em 09/08/2011 23:43

          Esta cifra é para a afinação em meio tom Eb Ab Db Gb Bb Eb

        140 cancelar

        conseguiu tocar?

        0:00 / 0:00

        Capítulos

          1 versão de baixo exibições contribuição e correção
          play/pausefechar subir/descer velocidade
          6ª corda E5ª corda A4ª corda D3ª corda G2ª corda B1ª corda E
            acordes
            publicidade
            fechar
            ok