Cifra Club

Tenha Dó

Los Hermanos

Cifra: Principal
exibições 199.118
Tom: C# (com acordes na forma de D) Afinação: Eb Ab Db Gb Bb Eb
E|-----------------|         E|------------------|
B|-----------------|         B|------------------|
G|-----------------|  (4x)   G|------------------| (4x)
D|-----------------|         D|------------------|
A|-----------------|         A|-13/---6----6-6---|
E|-13/--6----6-6---|         E|------------------|

E|-------------------------------------------------------------------------------------|
B|-------------------------------------------------------------------------------------|
G|-------------------------------------------------------------------------------------|
D|-----------------------------------------------------------------------------6/8-8~~-|
A|--8~~---6-8-9-8-6-8~~--6/8-6~~--------6~~------6--8/9-9--8-6-8~~------6-8~~----------|
E|--------------------------------6-8-9------8-9----------------------9----------------|

E|-------------------------------------------------------------------------------------|
B|-------------------------------------------------------------------------------------|
G|-----5-6-8-6~~---6-5-------------5---------------------------------------------------|
D|--8------------------8-7~~---7-8---7-8---4-3-----------------------------------------|
A|---------------------------------------------6-4-0-2--2-2-2--------------------------|
E|-------------------------------------------------------------------------------------|

  Bm              Em       A           Bm
  Não vou mais te perdoar, você foi longe demais
  Em           A            F#     G  F#
  Meu amor não sou tão só assim.
  Bm          Em        A             Bm
  Não consigo entender, me trocar por outro alguém
  Em         A          F#     G     F#
  Traição já e demais então, você me diz

         Bm
  Que me ama,
                       F#
  Que sem mim você não vive,
                       D
  Que foi apenas um deslize,
                      A
  Que você preza pelo meu amor
        Bm
  Tenha dó,
                 F#
  Não mereces o afago,
                       D
  Nem de Deus nem do Diabo,
                 A
  Quanto mais da mão que um dia eu dei pra ti

  Bm        Em         A          Bm
  A saudade vai bater, mas o meu amor se vai
    Em          A            F#     G  F#
  O tempo voa e quando vê já foi
  Bm          Em           A           Bm
  Não me fale de nós dois, não preciso mais saber
  Em          A            F#       G       F#
  Indo embora deixo-te um adeus, ao ouvir dizer

         Bm
  Que me ama,
                       F#
  Que sem mim você não vive,
                       D
  Que foi apenas um deslize,
                      A
  Que você preza pelo meu amor
        Bm
  Tenha dó,
                 F#
  Não mereces o afago,
                       D
  Nem de Deus nem do Diabo,
                 A
  Quanto mais da mão que um dia eu dei pra ti
Acordes para:
    Colaboração e revisão:

    0 comentários

      mostrar mais comentários

      Conseguiu tocar?

      25tocaram0ainda não

      Grave um vídeo tocando Tenha Dó e mande pra gente!

      00:00 / 00:00
      outros vídeos desta música
      repetirqualidadeautomática
      Outro vídeos desta música
        00:00 / 00:00
        automática
        OK