Cifra Club

Final

Los Jaivas

Cifra: Principal (violão e guitarra)
Selo Cifra Club: esta cifra foi revisada para atender aos critérios oficiais da nossa Equipe de Qualidade.
tom: G
E|---------------------|
B|------0------0------0|
G|----0------0------0--T| OC  ESTO SE D PITE UNA VEZ MAS
D|--2------2------2----o| kiza mas veces
A|---------------------|
E|---------------------|

    dadme              el
E|------------------------------------|
B|------0----0-----0-----0-----0-----0|
G|----0----0-----0-----0-----0-----0--|
D|--2----2-----2-----2-----2-----2---|
A|-----------------------------------|
E|----------------------------------|
  silencio
E|-------------------------------------|
B|------1-----1------1-------1------1--|
G|----2-----2------2------2-------2----| en esta
D|--4-----4-----4------4-------4-------part| e el
A|-------------------------------------p| iano se
E|-------------------------------------ap| ura
  el agua                    A 
E|-------------------------------------|
B|------3-----3-----3-----3-----3------|
G|----4-----4-----4-----4-----4-------|
D|--5-----5-----5-----5-----5---------|
A|------------------------------------|
E|------------------------------------|
   A  esperanza
E|-----------------------------------|
B|------1-----1------1-----1------1--|
G|----2-----2------2-----2------2----|
D|--4-----4------4-----4------4------|
A|-----------------------------------|
E|-----------------------------------|

E|------------------------------------|
B|------0----0-----0-----0-----0-----0|
G|----0----0-----0-----0-----0-----0--|
D|--2----2-----2-----2-----2-----2---|
A|-----------------------------------|
E|----------------------------------|

E|-------------------------------------|
B|------1-----1------1-------1------1--|
G|----2-----2------2------2-------2----|
D|--4-----4-----4------4-------4-------|
A|-------------------------------------|
E|-------------------------------------|
  dadme     A 
E|------------------------------------|
B|------3-----3-----3-----3-------3---|
G|----4-----4-----4-----4------4------|
D|--5-----5-----5-----5-----5---------|
A|------------------------------------|
E|------------------------------------|
  lucha
E|-------------------------------------|
B|------1-----1------1-------1------1--|
G|----2-----2------2------2-------2----|
D|--4-----4-----4------4-------4-------|
A|-------------------------------------|
E|-------------------------------------|
   el hierro      los
E|------------------------------------|
B|------0----0-----0-----0-----0-----0|
G|----0----0-----0-----0-----0-----0--|
D|--2----2-----2-----2-----2-----2---|
A|-----------------------------------|
E|----------------------------------|
   volca..............a.............
E|-------------------------------------|
B|------1-----1------1-------1------1--|
G|----2-----2------2------2-------2----|
D|--4-----4-----4------4-------4-------|
A|-------------------------------------|
E|-------------------------------------|
.........a........nes
E|-------------------------------------|
B|------3-----3-----3-----3-----3------|
G|----4-----4-----4-----4-----4-------|
D|--5-----5-----5-----5-----5---------|
A|------------------------------------|
E|------------------------------------|

E|-------------------------------------|
B|------1-----1------1-------1------1--|
G|----2-----2------2------2-------2----|
D|--4-----4-----4------4-------4-------|
A|-------------------------------------|
E|-------------------------------------|
 apegadme             los
E|------------------------------------|
B|------0----0-----0-----0-----0-----0|
G|----0----0-----0-----0-----0-----0--|
D|--2----2-----2-----2-----2-----2---|
A|-----------------------------------|
E|----------------------------------|
  cuerpos
E|-------------------------------------|
B|------1-----1------1-------1------1--|
G|----2-----2------2------2-------2----|
D|--4-----4-----4------4-------4-------|
A|-------------------------------------|
E|-------------------------------------|
  como  ma...............A............
E|-------------------------------------|
B|------3-----3-----3-----3-----3------|
G|----4-----4-----4-----4-----4-------|
D|--5-----5-----5-----5-----5---------|
A|------------------------------------|
E|------------------------------------|
  .......a................a...........
E|-------------------------------------|
B|------1-----1------1-------1------1--|
G|----2-----2------2------2-------2----|
D|--4-----4-----4------4-------4-------|
A|-------------------------------------|
E|-------------------------------------|
.....a..........res
E|------------------------------------|
B|------0----0-----0-----0-----0-----0|
G|----0----0-----0-----0-----0-----0--|
D|--2----2-----2-----2-----2-----2---|
A|-----------------------------------|
E|----------------------------------|---

E|-------------------------------------|
B|------1-----1------1-------1------1--|
G|----2-----2------2------2-------2----|
D|--4-----4-----4------4-------4-------|
A|-------------------------------------|
E|-------------------------------------|

E|-------------------------------------|
B|------3-----3-----3-----3-----3------|
G|----4-----4-----4-----4-----4-------|
D|--5-----5-----5-----5-----5---------|
A|------------------------------------|
E|------------------------------------|

E|-------------------------------------|
B|------1-----1------1-------1------1--|
G|----2-----2------2------2-------2----|
D|--4-----4-----4------4-------4-------|
A|-------------------------------------|
E|-------------------------------------|
  acudid a
E|------------------------------------|
B|------0----0-----0-----0-----0-----0|
G|----0----0-----0-----0-----0-----0--|
D|--2----2-----2-----2-----2-----2---|
A|-----------------------------------|
E|----------------------------------|-
 mis venas
E|-------------------------------------|
B|------1-----1------1-------1------1--|
G|----2-----2------2------2-------2----|
D|--4-----4-----4------4-------4-------|
A|-------------------------------------|
E|-------------------------------------|
 y a mi bo............o..............
E|-------------------------------------|
B|------3-----3-----3-----3-----3------|
G|----4-----4-----4-----4-----4-------|
D|--5-----5-----5-----5-----5---------|
A|------------------------------------|
E|------------------------------------|

......o.....................o.........
E|-------------------------------------|
B|------1-----1------1-------1------1--|
G|----2-----2------2------2-------2----|
D|--4-----4-----4------4-------4-------|
A|-------------------------------------|
E|-------------------------------------|
......o......ca
E|------------------------------------|
B|------0----0-----0-----0-----0-----0|
G|----0----0-----0-----0-----0-----0--|
D|--2----2-----2-----2-----2-----2---|
A|-----------------------------------|
E|----------------------------------|--

E|-------------------------------------|
B|------1-----1------1-------1------1--|
G|----2-----2------2------2-------2----|
D|--4-----4-----4------4-------4-------|
A|-------------------------------------|
E|-------------------------------------|
  hablad por
E|-------------------------------------|
B|------3-----3-----3-----3-----3------|
G|----4-----4-----4-----4-----4-------|
D|--5-----5-----5-----5-----5---------|
A|------------------------------------|
E|------------------------------------|
 mis palabras
E|-------------------------------------|
B|------1-----1------1-------1------1--|
G|----2-----2------2------2-------2----|
D|--4-----4-----4------4-------4-------|
A|-------------------------------------|
E|-------------------------------------|
 y mi sa..................a..........
E|------------------------------------|
B|------0----0-----0-----0-----0-----0|
G|----0----0-----0-----0-----0-----0--|
D|--2----2-----2-----2-----2-----2---|
A|-----------------------------------|
E|----------------------------------|--
............a........an...............
E|-------------------------------------|
B|------1-----1------1-------1------1--|
G|----2-----2------2------2-------2----|
D|--4-----4-----4------4-------4-------|
A|-------------------------------------|
E|-------------------------------------|
.....a................gre
E|-------------------------------------|
B|------3-----3-----3-----3-----3------|
G|----4-----4-----4-----4-----4-------|
D|--5-----5-----5-----5-----5---------|
A|------------------------------------|
E|------------------------------------|

E|-------------------------------------|
B|------1-----1------1-------1------1--|
G|----2-----2------2------2-------2----|
D|--4-----4-----4------4-------4-------|
A|-------------------------------------|
E|-------------------------------------|

E|------------------------------------|
B|------0----0-----0-----0-----0-----0|
G|----0----0-----0-----0-----0-----0--|
D|--2----2-----2-----2-----2-----2---|
A|-----------------------------------|
E|----------------------------------|--
 EN ESTA PARTE EL PIANO HACE UNA PAUSA
 Y LUGO KONTINUA , HACIENC  LO E SMO
 MAS OTRA PARTE , KE EN DA LIDAD ES
 LO E SMO KE LOS DE ANTES G  O KE UNA
 OCTAVA O MAS OCTAVAS ABAJO OSEAUN
 SONIC  MAS AGUC .
E|----------------------------|
B|--5-----5-----5-----5-------|
G|----4-----4-----4-----4-----|
D|------5-----5-----5-----5---|
A|----------------------------|
E|----------------------------|

E|----------------------------|
B|--7-----7-----7-----7-------|
G|----5-----5-----5-----5-----|
D|------7-----7-----7-----7---|
A|----------------------------|
E|----------------------------|

E|----------------------------|
B|--8-----8-----8-----8-------|
G|----7-----7-----7-----7-----|
D|------9-----9-----9-----9---|
A|----------------------------|
E|----------------------------|
BUENO, LO ANTERIOR ES A  PARTE
KE HACE EL PIANO JUNTO KON LOS
VERSOS

 EMMMM.... ESPERO KE SE ENTIENDA
 Y LES B RVA DE ALGO , LOS AKORDES
 SON: Em , re7 y sol D SPECTIVAMENTE
 ALGO KE OLVIDAVA ES KE A  D PETICION
 DE CADA NOTA ES A CRITERIO PROPIO
 YO KOMO EJEMPLO PUSE 6 O 5 D PETICIONES.
 YA, KUALKIER DUDA , KRITIKA O KULKIER
 CHAO.....
Outros vídeos desta música
    71 exibições
      • ½ Tom
      • A
      • Bb
      • B
      • C
      • Db
      • D
      • Eb
      • E
      • F
      • F#
      • G
      • Ab
    • Adicionar à lista

    Afinação da cifra

    Afinador online

      0 comentários

      Ver todos os comentários

      Conseguiu tocar?

      0Tocaram0Ainda não

      Grave um vídeo tocando Final e nos envie!

      Toque também

      1. Imagem do artista Los TresAmor Violento Los Tres
      2. Imagem do artista Manuel GarciaEl viejo comunista Manuel Garcia
      3. Imagem do artista Joe VasconcellosTú És Maior Joe Vasconcellos
      4. Imagem do artista Inti-IllimaniLa Exiliada Del Sur Inti-Illimani

      Entre para o Cifra Club PRO

      Tenha acesso a benefícios exclusivos no App e no Site

      • Chega de anúncios

      • Mais recursos no app do Afinador

      • Atendimento Prioritário

      • Aumente seu limite de lista

      • Ajude a produzir mais conteúdo

      Cifra Club Pro

      Aproveite o Cifra Club com benefícios exclusivos e sem anúncios
      Cifra Club Pro
      Aproveite o Cifra Club com benefícios exclusivos e sem anúncios
      OK