Cifra Club

Lluvia de estrellas

Los Jaivas

Cifra: Principal (violão e guitarra)
Selo Cifra Club: esta cifra foi revisada para atender aos critérios oficiais da nossa Equipe de Qualidade.
tom: C#m
E|-----------------------------------|
B|-----------------------------------|
G|-----------------------------------|
D|--2//7----2//6----2//7--4----------|
A|---------------------------5(5)--7-|
E|-----------------------------------|

E|-----------------------------------|
B|-----------------------------------|
G|-------------------------9-8--9----|
D|--2//7----2//9----2//11------------|
A|-----------------------------------|
E|-----------------------------------|

E|--------------7-9-12-11---12-11-9--|
B|-----10-9-10-----------------------|
G|--9--------------------------------|
D|-----------------------------------|
A|-----------------------------------|
E|-----------------------------------|

E|-----------9------7-----12-11-9-11--12-9--|
B|--10----10---10-----9---------------------|
G|-----11---------------9-------------------|
D|------------------------------------------|
A|------------------------------------------|
E|------------------------------------------|

E|--11--16-11-7------(7)----------|
B|--------------9(9)-----10-9-7---|
G|------------------------------9-|
D|--------------------------------|
A|--------------------------------|
E|--------------------------------|

E|-------------------------------------|
B|-------------------------------------|
G|-8h9------7h8------------------------|
D|-----11-7-----10-6---------6--7-6-9--|
A|---------------------9-8-9-----------|
E|-------------------------------------|

E|-------------------------------------7--|
B|------------------7-----10--9-7-9-10----|
G|--------6---6-8-9---9-------------------|
D|--6-7-9---9-----------------------------|
A|----------------------------------------|
E|----------------------------------------|

E|-----9-7------------|
B|--10-----10-9-7-----|
G|----------------9---|
D|--------------------|
A|--------------------|
E|--------------------|

bueno, espero ke les sirva de algo,
en realidad no esta 100%, le falta
la ultima parte (parte rapida)y no
esta 1oo% correcta pero en fin,
suena bonito....kualkier duda,
kritika y kualkier kosa a mi
mail k-vzon--arrobahotmailpuntocom
chao... ke esten bien....
Outros vídeos desta música
    15 exibições
      • ½ Tom
      • Am
      • Bbm
      • Bm
      • Cm
      • C#m
      • Dm
      • Ebm
      • Em
      • Fm
      • F#m
      • Gm
      • G#m
    • Adicionar à lista

    Afinação da cifra

    Afinador online

      0 comentários

      Ver todos os comentários

      Conseguiu tocar?

      0Tocaram0Ainda não

      Grave um vídeo tocando Lluvia de estrellas e nos envie!

      Toque também

      1. Imagem do artista Los TresAmor Violento Los Tres
      2. Imagem do artista Manuel GarciaEl viejo comunista Manuel Garcia
      3. Imagem do artista Joe VasconcellosTú És Maior Joe Vasconcellos
      4. Imagem do artista Inti-IllimaniLa Exiliada Del Sur Inti-Illimani

      Entre para o Cifra Club PRO

      Tenha acesso a benefícios exclusivos no App e no Site

      • Chega de anúncios

      • Mais recursos no app do Afinador

      • Atendimento Prioritário

      • Aumente seu limite de lista

      • Ajude a produzir mais conteúdo

      Cifra Club Pro

      Aproveite o Cifra Club com benefícios exclusivos e sem anúncios
      Cifra Club Pro
      Aproveite o Cifra Club com benefícios exclusivos e sem anúncios
      OK