Cifra Club

Morella

Los Piojos

Cifra: Principal (violão e guitarra)
tom: F#m
                        Escala de E 
E|---------------------------------------------------------|
B|-------12--15--------------------------------------------|
g|/13-14---------14-13h14p13--14p13------------------------|
D|---------------------------------14p12-------------------|
A|--------------------------------------14p12p11h12p11-----|
E|----------------------------------------------------12-10|
                       Escala de Fa#
E|-------------------------12--14-12-11h12p11--------------|
B|----------11-12--12/14-----------------------12p11h12----|
G|-------11------------------------------------------------|
D|---------------------------------------------------------|
A|---------------------------------------------------------|
E|12-14----------------------------------------------------|
                      Escala de E 
E|---------------------------------------------------------|
b|12---------------------------------15--------------------|
G|---11--9pp8h9-------------13-14/16----14-14p13h14--------|
D|-------------9p7h9p7-----------------------------14-12-14|
A|------------------------7-9------------------------------|
E|---------------------------------------------------------|

00:16:
PUENTE:

Guitarra:
       E                 E                   F#               F#
E|--------------|-------------------|--------------------|----------|--|
B|--------------|-------------------|--------------------|----------|--|
G|--------------|-------------------|--------------------|----------|--|
D|-------11-----|-13-14-11----------|-13-14-11-----------|-13-14-11-| x2|
a|11---11--12-11|11------14-11-12-13|13------14-11-12-13-|13------13|--|
E|-12-14--------|-------------------|--------------------|----------|--|
Bajo:
        E                  F#
G|--------------|--| |--------------|--||--|
D|--------------|--| |--------------|--||--|
A|--------------| x2||--------------|x2||x2|
E|0-0-0-0-0-0-0-|--||2-2-2-2-2-2-2-|--||--|

Estribillo:
Guitarra:
(Muuy de fondo)
            E                        F#
E|-------------------12|-----------14--12--12--12--|
B|-------------10h12---|---11-12-14------12--12--12|
G|-9~--11~--13~--------|-11------------------------|
D|---------------------|---------------------------|
A|---------------------|---------------------------|
E|---------------------|---------------------------|
            E                        F#
E|---------------------|-----------------14-12-11--|
B|-------------12---11-|-------11~--11h12-------12-|
G|-9~--11~--13~---13---|-11-13----13-------------11|
D|---------------------|---------------------------|
A|---------------------|---------------------------|
E|---------------------|---------------------------|
Bajo:
(Igual)
E
Ahhhh Ahhhh Morella
F#
Desde el fín, volverás
E
Ahhh  Ahhhh Morella
F#
Hasta el fin, volverás


Ohhh ohh..

Estrofa 1:

Guitarra 1:
  F#m       F        C        E
E|-2------|-1------|-3------|-0------|--| |--|
B|-2------|-1------|-5------|-0------|--| |--|
G|-2------|-2------|-5------|-1------|--| |--|
D|-4------|-3------|-5------|-2------| x2||X2|
A|-4------|-3------|-3------|-2------|--| |--|
E|-2------|-1------|--------|-0------|--| |--|
   V        V        V        V
Guitarra 2:
     F#m       F       C         E
E|--------|--------|--------|--------|--| |--|
B|--------|--------|--------|--------|--| |--|
G|--------|--------|--------|--------|--| |--|
d|4-4-4-4-|3-3-3-3-|2-2-2-2-|2-2-2-2-|x2||x2|
A|-4-4-4-4|-3-3-3-3|-3-3-3-3|-2-2-2-2|--| |--|
E|--------|--------|--------|--------|--| |--|
Bajo:
(En semicorcheas de tónica)

F#m           F
Mirame bien , dijo al partir
C                           E
no te sorprenda ,volverme a ver.
F#m           F
Mirame bien , puedo morir
C                    E
y una y mil veces renacer.

PUENTE

Estribillo:
Guitarra:
(Insacable, pero fijensé las escalas que son iguales)
Bajo:
(Igual)
     E
Ah , ah

Morella
         F#
desde el fin volveras.

Estrofa 2:
(Todo igual)
F#m           F
Mirame bien , dijo al partir
C                            E
no te sorprenda ,volverme a ver.
F#m           F
Mirame bien , puedo morir
C                        E
y una y mil veces renacer.

Solo:
(Con mucho más Wah Wah de lo normal)
e|12~--12~-12~-12~--12~-14~~~14~~-16-14-16-14-18~~~-18~~~-|
B|--------------------------------------------------------|
G|--------------------------------------------------------|
D|--------------------------------------------------------|
A|--------------------------------------------------------|
E|--------------------------------------------------------|
E
Y otra vez hoooooooooy
E
Y otra vez veeeeeeeees
F#
Que tu vestiiidoo vueeela
F#
Que tu vestiiidoo vueeela
E
Y otra vez hoooooooooy
E
Y otra vez veeeeeeeees
F#
Que tu vestiiidoo vueeela
F#
Que tu vestiiidoo vueeela
E
Y otra vez hoooooooooy
(Mira mira, la tumba esta vaciiiaa)
E
Y otra vez veeeeeeeees
(Mira mira, la tumba esta vaciiiaa)
F#
Que tu vestiiidoo vueeela
(Mira mira, la tumba esta vaciiiaa)
F#
Que tu vestiiidoo vueeela
(Mira mira, la tumba esta vaciiiaa)
E
Ahhhhhhhhhhhh ahhhhhhhhhhh ahhhhhhhhh ahhhhhhh
F#
Ahhhhhhhhhhh ahhhhhhhhhhhhhh ahhhhhhhhh ahhhhhh

Fin:
E|------------------------------------------------------|
B|------------------------------------------------------|
G|-13/14/16/19-14-14p13-13------------------------------|
D|------------------------14-14p12----------------------|
A|--------------------------------14-14p12-12-12p11-----|
E|-------------------------------------------------12-10|

Las escalas, si las necesitan son:

     1  2  3  4  5  6  7
E:  |E-|F#|G#|A-|B-|C#|D-|
F#: |F#|G#|A#|B-|C#|D#|E-|
00:00 / 00:00
Outros vídeos desta música
Repetir
Outros vídeos desta música
Composição de Ciro
57 exibições
    • ½ Tom
    • Am
    • Bbm
    • Bm
    • Cm
    • C#m
    • Dm
    • Ebm
    • Em
    • Fm
    • F#m
    • Gm
    • G#m
  • Adicionar à lista

    0 comentários

    Ver todos os comentários

    Entre para oCifra Club PRO

    Tenha acesso a benefícios exclusivos no App e no Site

    • Chega de anúncios

    • Prioridade de compra em lançamentos

    • Mais recursos no app do Afinador

    • Atendimento Prioritário

    • Descontos nos produtos Cifra Club

    • Ajude a produzir mais conteúdo

    00:00 / 00:00

    Cifra Club Pro

    Aproveite o Cifra Club com benefícios exclusivos e sem anúncios
    Cifra Club Pro
    Aproveite o Cifra Club com benefícios exclusivos e sem anúncios
    OK