Cifra Club

Tan Solo

Los Piojos

Cifra: Principal (violão e guitarra)
tom: G
    C                      Bb                    F                     C
E|-----------------------| ----------------------|---------------------|--------------------------|
B|¡ñ----------------------|---------------------|---------------------|--------------------¡ñ---|
G|-----------------------| ----------------------|---------------------|--------------------------|
D|------x----------------| -----x-----3----------|----x----------------|----x---------------------|
A|¡ñ-/3--x--3--------3--2-|-1--x--1-----1-------|----x-----0--0--1--2-|-3--x--3--------1¡ª2-¡ñ--|
E|------x-----3--3-------| -----x-----------3--2-|-1--x--1-------------|----x-----3--3------------|

    G
Quiza no sea el vino
    F
Quiza no sea el postre
    C
Quiza no sea
        G
No sea nada

      G
Pero hay tanta belleza
    F
Tirada en la mesa
   C            G
Desnuda toda rebalsada

G
Apuras el vaso
 F
Vas perdiendo el paso
  C                     G
Y en la mesa ya no hay nada

   G
Borracha esta la puerta
    F
Cerraste y quedo abierta
    C                  G
Y puedo escuchar tu llamada

 G   F      C     G  
Oh! Oh! Tan solo
 G   F      C     G  
Oh! Oh! Tan solo

    G
Servida ya tu boca
     F
Tan dulce esta tu boca
     C                    G
Tan dulce como un blues amargo

   G
Un vaso rueda al piso
 F
Lento cae al piso
 C                     G
Lento y muere en mil pedazos

            G
No quiero dejar que se vean
    F
Tus ojos se vean
 C              G
Tan, tan, tan, tristes

      G
Habra sido es destino
     F          C
Ese vaso de vino
       G
Que dijiste

G          F          C
Salta la cuerda, se enreda
         G
Y cae de boca

    C                      Bb                    F                     C
E|----------------------| ----------------------|---------------------|--------------------|
B|----------------------| ----------------------|---------------------|--------------------|
G|----------------------| ----------------------|---------------------|--------------------|
D|----------------------| ----------------------|----x----------------|----x---------------|
A|-3--------------------| --1-------------------|----x-----0--0--1--2-|-3--x--3--------1--2|
E|----------------------| ----------------------|-1--x--1-------------|----x-----3--3------|
00:00 / 00:00
Outros vídeos desta música
Repetir
Outros vídeos desta música
Composição de Ciro
Colaboração e revisão:
  • James Nazar
  • FrancoLoLHD Bruntz
33.102 exibições
    • ½ Tom
    • A
    • Bb
    • B
    • C
    • Db
    • D
    • Eb
    • E
    • F
    • F#
    • G
    • Ab
  • Adicionar à lista

    0 comentários

    Ver todos os comentários

    Entre para oCifra Club PRO

    Tenha acesso a benefícios exclusivos no App e no Site

    • Chega de anúncios

    • Prioridade de compra em lançamentos

    • Mais recursos no app do Afinador

    • Atendimento Prioritário

    • Descontos nos produtos Cifra Club

    • Ajude a produzir mais conteúdo

    00:00 / 00:00

    Cifra Club Pro

    Aproveite o Cifra Club com benefícios exclusivos e sem anúncios
    Cifra Club Pro
    Aproveite o Cifra Club com benefícios exclusivos e sem anúncios
    OK