Cifra Club

Acetona

Los Rabanes

Cifra: Principal (violão e guitarra)
tom: Em
Primera y segunda estrofa: (Riff 1)

]---------------------------------------[
]---------------------------------------[
]---------------------------------------[
]-6-6-4---6-6-4-------6-6-4---6-0-4-5-6-[ X2
]-7-7-5-0-7-7-5-0-5-6-7-7-5-0-7-0-5-6-7-[
]---------------------------------------[
     'Me gusta verte distraida...'

En la parte que dice 'llenarte mas de mi sali...'
hay 2 guitarras: (Riff 2)

Guitarra I Clean

]-------------------------------------------[
]-------------------------------0-----------[
]-----0---------0---------0-------0-------0-[
]---2---2-----4---4-----5---5-------5---5---[
]-3-------3-5-------5-7-------7-------7-----[
]-------------------------------------------[

]---------------------[
]---------------------[
]-----0---------0-----[
]---2---2-----4---4---[
]-3-------3-5-------5-[
]---------------------[

Y la guitarra II...
En Distortion
]---------------------[
]---------------------[
]-5-------7-------9---[
]-5-------7-------9---[
]-3-------5-------7---[
]---------------------[

Antes del coro hay un espacio donde se hacen varios cortes
las guitarras van asi:

Guitarras I y II (clean) (Riff 6)

            ***
]----------|---------------[
]-9-9--7---|---9-7-9-7-9-9-[
]-9-9--7---|---9-7-9-7-9-9-[
]-9-9--7---|---9-7-9-7-9-9-[
]-7-7--5---|---7-5-7-5-7-7-[
]----------|---------------[

Para caer al primer coro se toca toda la frase anterior completa.
Pero para el segundo se omite la primera parte y se comienza desde
donde indican los ***

Coro: (Riff 3)

Los acordes son Em, C, D y B.

 Em:   C:   D:    B:
]-7--|-8--|-10--|-7--[
]-8--|-8--|-10--|-7--[
]-9--|-9--|-11--|-8--[
]-9--|-10-|-12--|-9--[
]-7--|-10-|-12--|-9--[
]-7--|-8--|-10--|-7--[

No te puedo describir la manera exacta en la que se tocan
los acordes, para saberlo tendras que escuchar el tema.

Luego del coro hay una frase que hace una guitarra
distorcionada con el Riff 1 de fondo:

Frase 1 (Guitarra 1: Distortion)

]---------------------------------------------[
]---------7-5h7p5---5-----------7-5h7p5---5t7-[
]-------7---------7---7-------7---------7-----[
]---6-9-------------------6-9-----------------[
]-7---------------------7---------------------[
]---------------------------------------------[

La 't' que aparece entre los trastes 5 y 7 de la 2da cuerda
significa 'tremolo', y consiste en hacer repetidos hammer y
pull off entre dichos trastes.
00:00 / 00:00
Outros vídeos desta música
Repetir
Outros vídeos desta música
Compositor não encontrado.
1 exibições
    • ½ Tom
    • Am
    • Bbm
    • Bm
    • Cm
    • C#m
    • Dm
    • Ebm
    • Em
    • Fm
    • F#m
    • Gm
    • G#m
  • Adicionar à lista

    0 comentários

    Ver todos os comentários

    Conseguiu tocar?

    0 Tocaram 0 Ainda não

    Grave um vídeo tocando Acetona e nos envie!

    00:00 / 00:00

    Cifra Club Pro

    Aproveite o Cifra Club com benefícios exclusivos e sem anúncios
    Cifra Club Pro
    Aproveite o Cifra Club com benefícios exclusivos e sem anúncios
    OK