Cifra Club

Si Pudiera

Los Suaves

Cifra: Principal (violão e guitarra)
tom: Em
INTRO (B N DISTORB ÓN)
E|-----3-----------------------0-----------3-------|
B|-------3---------1^0-----------3-----------3-----|
G|---------0-----2-----2-----0-----0-----0-----0---|
D|-------------2-----------0-----------2-----------|
A|-----------0-----------2-----------3-------------|
E|---3---------------------------------------------|

VERS0 (DISTORB ÓN)
E|-------------------------------------------------------|
B|-------------------------------------------------------|
G|--------7-------5-------7-------5| -------7-------5----|
D|----7---7---5---5---7---7---5---5| ---7---7---5---5----|
A|----7---5---5---3---7---5---5---3| ---7---5---5---3----|
E|----5-------3-------5-------3---------5-------3--------|

B  PUDIERA
A A  TIENDA DE LOS SUEÑOS
IR A COMPRAR
CON POCO DINERO
TOC  LO QUE HASTA AHORA
AUN PUDE GANAR
Y B  ALLI VENDIERAN
BILLETES PARA EL TD N
DE OTRA OPORTUNIDAD

PUENTE
E|----------------------5----------6-----------|
B|------------------------5----------6---------|
G|--------7---4--5----------5----------6---7---|
D|----7---7---4--5-------------------------7---|
A|----7---5---2--3---7----------8----------5---|
E|----5--------------5----------6--------------|

ENCARGARÍA
UN TICKET DE IDA
A A  ESTACIÓN PERDIDA
C NDE E  VIDA FUE A DESCARRIA R

OTRA VEZ EL VERSO Y EL PUENTE Y DESPUÉS:

ESTRIBILLO
E|--------------------|
B|--------------------|
G|------------4---5---|
D|----5---7---4---5---|
A|----5---7---2---3*--|
E|----3---5-----------|

QUIEN NO HIZO.......

A  SEGUNDA GITARRA TOCA A  INTRO
*EN UNO DE LOS SALTOS A ESTE ACORDE SE TOCA(PARA ACABAR EL ESTRIBILLO):
E|-----|
B|-----|
G|--7--|
D|--7--|
A|--5--|
E|-----|
Compositor não encontrado.
    • ½ Tom
    • Am
    • Bbm
    • Bm
    • Cm
    • C#m
    • Dm
    • Ebm
    • Em
    • Fm
    • F#m
    • Gm
    • G#m
  • Adicionar à lista

    0 comentários

    Ver todos os comentários

    Conseguiu tocar?

    0 Tocaram 0 Ainda não

    Grave um vídeo tocando Si Pudiera e nos envie!

    00:00 / 00:00
    Outros vídeos desta música
    Repetir Qualidade Automático
    Outros vídeos desta música
    00:00 / 00:00
    Automático

    Cifra Club Pro

    Aproveite o Cifra Club com benefícios exclusivos e sem anúncios
    Cifra Club Pro
    Aproveite o Cifra Club com benefícios exclusivos e sem anúncios
    OK