Cifra Club

Torre de babel

Los Tres

Cifra: Principal (violão e guitarra)
tom: Cm
E|-----------9-7---|----------9-7--|---------10^9-10^9-10^9-10^9--7-9-----|
B|-------(8)-------|-------(8)-----|-------x------------------------------|
G|---4/9-----------|---4/9---------|---4/9--------------------------------|
D|-----------------|---------------|--------------------------------------|
A|-----------------|---------------|--------------------------------------|
E|-----------------|---------------|--------------------------------------|
(4 veces)

"Quiebre"
E|----------------------------------------|------------------------------------|
B|----------------------------------------|------------------------------------|
G|----------------------------------------|------------------------------------|
D|-------15-15--------15-15--------15-15--|-13--13--13-13-13---15-15-15-15-15--|
A|--7/16-16-16--10/16-16-16--10/16-16-16--|-14--14--14-14-14---16-16-16-16-16--|
E|----------------------------------------|------------------------------------|

E|-------------------------------------------|-|
B|-------------------------------------------|-|
G|------(14)(14)------(14)(14)------(14)(14)-|-|
D|-------15--15--------15--15--------15--15--|-|
A|--7/16-16--16--10/16-16--16--10/16-16--16--|-|
E|-------------------------------------------|-|

E|-----------------------------------------|
B|-----------------------------------------|
(12)(12)(12)(12)(12)(14)(14)(14)(14)(14)-|
E|-13--13--13--13--13--15--15--15--15--15--|
B|-14--14--14--14--14--16--16--16--16--16--|
G|-----------------------------------------|
(Álvaro en vivo toca las notas fantasmas,
en la versión de estudio casi no suenan)

(Ya, aquí o tocas acordes, o haces como Álvaro hizo en Viña 2007)
(rasgueo al ritmo de la canción)
e|----------------------------------------|-|
e|----------------------------------------|-|

(o los acordes)

A7                      G7
En la torre de babel vivían 50 cigarros
A7                   G7
Vivian amontonados hechos todos de papel

RIFF 2

E|-----------------------------------------------|-------------------------|
B|-----------------------------------------------|-------------------------|
G|-----------------------------------------------|-------------------------|
D|----------------------------5-5----------------|-------------------------|
A|----------------7-7-6-6-7-7-----7-7-6-6-7-7----|--55--66--7-7-6-6-7-7----|
E|-0-0--3-3-4-4-5--------------------------------|-3---4---5---------------|
(la nota más alta [la de la 4ta cuerda] no siempre la toca Ángel Parra,
como quieran uds)

A7                   G7
Uno a uno alineados, todos muy bien formados
A7                         G7
el mas pequeño era aquel y se llamaba Gabriel

Riff de nuevo

A7                      G7
Tabaco fino algodones, iban a ver el río
A7                       G7
Iban cantando canciones, muertos de frío

Riff 2

A7                      G7
la pasión de Gabriel era nadar en el rió
A7                           G7
Le contó de esto a su tío que era un cigarro de miel

Puente

E|----------------------|-|
B|-----0-1-3-131-0-1-0--|-|
G|---2------------------|-| 2 veces
D|----------------------|-|
A|-0--------------------|-|
E|----------------------|-|

(En vivo Angel agrega esto)

E|----------------------5-4--|-|
B|-----0-1-3-131-0-1-0--4-3--|-|
G|---2------------------5-4--|-| 2 veces
D|---------------------------|-|
A|-0-------------------------|-|
E|---------------------------|-|

E|------------------------------------|-|
B|-/6--6-5--5-4--4-3---1--3--1--3-/5--|-|
G|---5----4----3------(0)(2)(0)(2)(4)-|-| 2 veces
D|------------------------------------|-|
A|------------------------------------|-|
E|------------------------------------|-|

Riff

A7                        G7            A7
Su tio que era muy viejo no le puso reparos
A7                       G7                 A7
y cuando llego el habano forrado entero de cafe

Riff 2

A7                         G7                  A7
Donde se metio Gabriel pregunto inquieto el habano
A7                          G7           A7
Se fue con otros cigarros a ver el rio correr

Riff2

A7                     G7               A7
No lo puedo creer!!! eres muy mal ciudadano
A7                                   G7          A7
Pues tu sobrino y hermano tal vez nunca pueda volver

Puente

(Ahora, el solo, la parte que nadie saca bien y segun yo es así:)

E|--9-9---7------------------------------------------------|
B|-8-8-8-6-6--6/4---4--------------------------------------|
G|----------------6-----r0-r0-r0-r0-r0---6/4-0-------------|
D|--------------------------------------------r3-r3--------|
A|---------------------------------------------------------|
E|---------------------------------------------------------|

E|---------------------------------------------------------------|
B|---------------------------------------------------8-6-10-12/--|
G|-----------------------6-4-6---6-8-10--10-8-6-8-10-8-6-10-12/--|
D|---------------5-7-5-7---------7-9-11--11-9-7-9-11-9-7-11-13---|
A|---------4-6-4-------------------------------------------------|
E|-3-5-3-5-------------------------------------------------------|

Quiebre
y añadir esto como rasgueo:
E|--------|
B|--------|
G|----14--|
D|----15--|
A|----16--|
E|--------|

A7                      G7
Cuando llego el habano a A7 orilla del rió
A7                       G7
Vio un pequeño cigarro muerto, abierto y tendido

Riff 2

A7                   G7
Estaba todo mojado sin señales de vida
A7                          G7
El tabaco se desprendía quedaba desparramado

Riff2

A7                            G7
Tristeza, llantos, lamentos reinaran desde hoy en babel
A7                         G7
Se nos ha muerto Gabriel todo ha quedado en silencio
00:00 / 00:00
Outros vídeos desta música
Repetir
Outros vídeos desta música
Composição de Los tres
293 exibições
    • ½ Tom
    • Am
    • Bbm
    • Bm
    • Cm
    • C#m
    • Dm
    • Ebm
    • Em
    • Fm
    • F#m
    • Gm
    • G#m
  • Adicionar à lista

    0 comentários

    Ver todos os comentários

    Conseguiu tocar?

    0 Tocaram 0 Ainda não

    Grave um vídeo tocando Torre de babel e nos envie!

    00:00 / 00:00

    Cifra Club Pro

    Aproveite o Cifra Club com benefícios exclusivos e sem anúncios
    Cifra Club Pro
    Aproveite o Cifra Club com benefícios exclusivos e sem anúncios
    OK