Cifra Club

Bruises

Love and Death

Cifra: Principal (violão e guitarra)
tom: G
Intro:
------------------------------------------------------------
--------------------------------------------------------6---
----6--------------------8---------6------------------------ 
----------10-----8-----8---8-------------10-----8-----8---8-
--8-----8------8---8-9-----------8-----8------8---8-9-------
6-----6------6-----------------6-----6------6---------------

verse same as intro

Hearing voices in your head ...

------------------------------------------------------------
--------------------------------------------------------6---
----6--------------------8---------6------------------------ 
----------10-----8-----8---8-------------10-----8-----8---8-
--8-----8------8---8-9-----------8-----8------8---8-9-------
6-----6------6-----------------6-----6------6---------------

pre-chorus:

They bleed you dry  They bleed you dry
-------------------------
-------------------------
--------------3--5------
3------------4--6------
3------------4--6------
1------------2--4------


chorus:

--8-9---8-4---8-9--11-8
-----------------------
------------3----8-----
8-----3-----4----8-----
8-----3-----4----6-----
6-----4-----2----------

second verse same as first
pre-chorus 
chorus

bridge:

--------------------------------
--------------------------------
--------------------------------
--------------------------------
------------3-3-3/4-4-4---------
6-6-6/5-5-5-------------6/8-8-8-

------6--------------------------------
------6--------------------------------
------6---------5-5-5/6-6-6------------  repeat several times
8-8-8-8-8/7-7-7-5-5-5/6-6-6-8/10-10-10-
8-8-8-8-8/7-7-7-3-3-3/4-4-4-8/10-10-10-
6-6-6-6-6/5-5-5-------------6/8--8--8--

@author: antbay4

final chorus:

6-----1-----2-----6
6-----1-----2-----6
6-----1-----3-----8
8-----3-----4-----8
6-----3-----4-----6
6-----1-----2-----6
00:00 / 00:00
Outros vídeos desta música
Repetir
Outros vídeos desta música
Composição de Brian Welch / Mark Holman
Colaboração e revisão:
  • Jonatas Walker
150 exibições
    • ½ Tom
    • A
    • Bb
    • B
    • C
    • Db
    • D
    • Eb
    • E
    • F
    • F#
    • G
    • Ab
  • Adicionar à lista

    0 comentários

    Ver todos os comentários

    Entre para oCifra Club PRO

    Tenha acesso a benefícios exclusivos no App e no Site

    • Chega de anúncios

    • Prioridade de compra em lançamentos

    • Mais recursos no app do Afinador

    • Atendimento Prioritário

    • Descontos nos produtos Cifra Club

    • Ajude a produzir mais conteúdo

    00:00 / 00:00

    Cifra Club Pro

    Aproveite o Cifra Club com benefícios exclusivos e sem anúncios
    Cifra Club Pro
    Aproveite o Cifra Club com benefícios exclusivos e sem anúncios
    OK