Cifra Club

Carla

LS Jack

Cifra: Principal
exibições 1.531.821
Tom: D
Primeira Parte:

E|------------------------------------------------------|
B|------------------------------------------------------|
G|------2-----------------------------------------------|
D|-2/4-----4--------------------------------------------|
A|-------------2----------------------------------------|
E|------------------------------------------------------|

        Bm11  B7(9/11)  Em7
Eu cheguei        a deixar
    A
Vestígios pra você me achar
       Bm11  B7(9/11)
Foi assim
           Em7
Que entreguei 
         A
Meu coração devagar
       Bm11  B7(9/11)  Em7
Eu tentei   te     roubar 
     A
Aos poucos pra você notar
        Bm11
Que fui eu
 B7(9/11)  Em7
Te    guardei 
          A         A11  A  A9  A
Onde ninguém vai tirar

    Bm11             Em7
Do fundo dos meus olhos
     A
Pra dentro da memória
      Bm11
Te levei
  Em7            A
Amor você me tentou
         
Oh! Carla


Refrão:

D         G        G/F#  Em7
  Eu te amei como ja____mais
             A           D
Um outro alguém vai te amar
             G               G/F#  Em7
Antes que o    sol pudesse acor___dar
        A
Eu te amei
        D
Oh! Carla 

G  G/F#  Em7 A
         Oh Carla
Bm11  Em7  A  A11  A  A9  A


Repete a Primeira Parte:

        Bm11  B7(9/11)  Em7
Eu cheguei        a deixar
    A
Vestígios pra você me achar
       Bm11  B7(9/11)
Foi assim
           Em7
Que entreguei 
         A
Meu coração devagar
       Bm11  B7(9/11)  Em7
Eu tentei   te     roubar 
     A
Aos poucos pra você notar
        Bm11
Que fui eu
 B7(9/11)  Em7
Te    guardei 
          A         A11  A  A9  A
Onde ninguém vai tirar

    Bm11             Em7
Do fundo dos meus olhos
     A
Pra dentro da memória
      Bm11
Te levei
  Em7            A
Amor você me tentou
         
Oh! Carla


Repete o Refrão:

D         G        G/F#  Em7
  Eu te amei como ja____mais
             A           D
Um outro alguém vai te amar
             G               G/F#  Em7
Antes que o    sol pudesse acor___dar
        A
Eu te amei
        
Oh! Carla 


Solo:

1
E|-3--3-3---x-x---7-7--x-x------------------------------|
B|-5--5-5---x-x---8-8--x-x------------------------------|
G|-5--5-5---x-x---7-7--x-x------------------------------|
D|------------------------------------------------------|
A|------------------------------------------------------|
E|------------------------------------------------------|


2
E|-5---5-5---5-5-5--------5-----------------------------|
B|-7---7-7---7-7-7----5b7---7r5--3~---------------------|
G|-7---7-7---7-7-7--------------------------------------|
D|------------------------------------------------------|
A|------------------------------------------------------|
E|------------------------------------------------------|

3
E|-5---5-5---5-5-5--5-5-5--5-5-5------------------------|
B|-7---7-7---7-7-7--7-7-7--7-7-7------------------------|
G|-7---7-7---7-7-7--7-7-7--7-7-7------------------------|
D|------------------------------------------------------|
A|------------------------------------------------------|
E|------------------------------------------------------|


4
E|-8-8-8--7-7-------------------------------------------|
B|-8-8-8--8-8-10-10--8-8-8--8-8-8--8-8------------------|
G|-------------------9-9-9--9-9-9--9-9------------------|
D|------------------------------------------------------|
A|------------------------------------------------------|
E|------------------------------------------------------|


5
E|---8-8-8--7-7-----------------------------------------|
B|---8-8-8--8-8-10-10--10/14--14~-----------------------|
G|-9---------------------/14--14~-----------------------|
D|------------------------------------------------------|
A|------------------------------------------------------|
E|------------------------------------------------------|


Base Do Solo:

C9  D  (2x)

G  G/F#  Em7  G  A


Repete a Primeira Parte:

    Bm11             Em7
Do fundo dos meus olhos
     A
Pra dentro da memória
      Bm11
Te levei
  Em7            A
Amor você me tentou
         
Oh! Carla


Refrão Final:

D         G        G/F#  Em7
  Eu te amei como ja____mais
             A           D
Um outro alguém vai te amar
             G               G/F#  Em7
Antes que o    sol pudesse acor___dar
        A
Eu te amei
        D
Oh! Carla 
G     G/F#  Em7  A      Bm11  B7(9/11)
Eu te a____mei,  Oh Carla
Em7     A          C9  D
Eu te amei, Oh Carla
Acordes para:

    0 comentários

      mostrar mais comentários

      Conseguiu tocar?

      154tocaram1ainda não

      Grave um vídeo tocando Carla e mande pra gente!

      00:00 / 00:00
      outros vídeos desta música
      repetirqualidadeautomática
      Outro vídeos desta música
        00:00 / 00:00
        automática
        Capítulos
        • Tocando a Música
        • Dicas iniciais / Equipamentos
        • Acordes da Primeira Parte
        • Tocando Primeira Parte
        • Ensinando Primeira Parte
        • Dicas Refrão
        • Tocando Refrão
        • Ensinando Refrão
        • Dicas Solo
        • Tocando Solo
        • Ensinando Solo - Parte 1 de 5
        • Ensinando Solo - Parte 2 de 5
        • Ensinando Solo - Parte 3 de 5
        • Ensinando Solo - Parte 4 de 5
        • Ensinando Solo - Parte 5 de 5
        • Dicas Finais / Encerramento
        • Ficha Técnica
        OK