Cifra Club

Decisão Final

LS Jack

Cifra: Principal (violão e guitarra)
Selo Cifra Club: esta cifra foi revisada para atender aos critérios oficiais da nossa Equipe de Qualidade.
tom: B
Intro:
E|-----------------------------------------------------------------|
B|-----------------------------------------------------------------|
G|-----------------------------------------------------------------|
D|----6h7-6------6h7-6--------6h-7-6-----6h7-6-----------4h5-(8x)--|
A|-----------7----------7-6-4--------7-4--------7-4-6--------------|
E|--4----------4---------------------------------------------------|

G#m
Decisão final
              C#m
suas malas fizeram
D#7                          G#m
partiram então antes do amanhecer
G#7                          C#m
chegou o verão os pássaros disseram
G#m              D#7               G#m
aonde estamos e o que é que vamos fazer

G#m
Bebemos do vinho
             C#m
sentindo o vento
  D#7                             G#m
profundo ficou o que eu tinha a dizer
G#7                              C#m
quando o carro quebrou enlouquecemos
G#m                 D#7             G#m   F#
aonde estamos e o que é que vamos fazer

F#               B                F#
Na verdade você é meu caminho a trilha que eu vou
  G#m               D#
rodando e tocando esse rock and roll
   E             B            F#     (Riff 1)
eu nunca me canso se com você estou
F#        B                   F#
Pode perceber que o destino que você tomou
     G#m             D#
só te fez capaz de sacar quem eu sou
    E            B            F#      D#7
eu nunca me canso se com você estou

G#m
Decisão final
              C#m
suas malas fizeram
D#7                          G#m
partiram então antes do amanhecer
G#7                          C#m
chegou o verão os pássaros disseram
G#m              D#7               G#m F#
aonde estamos e o que é que vamos fazer

F#               B                F#
Na verdade você é meu caminho a trilha que eu vou
  G#m               D#
rodando e tocando esse rock and roll
   E             B            F#     (Riff 1)
eu nunca me canso se com você estou
F#        B                   F#
Pode perceber que o destino que você tomou
     G#m             D#
só te fez capaz de sacar quem eu sou
    E            B            F#      D#7
eu nunca me canso se com você estou
Riff 1:
E|---------------------|
B|---------------------|
G|------------1--------|
D|----1---1-----1------|
A|--4---4---4-----4----|
E|------------------2--|

Solo:
E|------------------------------------------------|
B|------------------------------------------------|
G|------------------------------------------------|
D|-----------------------------------6h8-6/4h6-44-|
A|------------------6p4-2-4-5-7-------------------/
E|--2h4-4-2-4-2-4-2-------------------------------|

F#               B                F#
Na verdade você é meu caminho a trilha que eu vou
  G#m               D#
rodando e tocando esse rock and roll
   E             B            F#     (Riff 1)
eu nunca me canso se com você estou
F#        B                   F#
Pode perceber que o destino que você tomou
     G#m             D#
só te fez capaz de sacar quem eu sou
    E            B            F#        D#7
eu nunca me canso se com você estou... Estou
Outros vídeos desta música
25.776 exibições
    • ½ Tom
    • A
    • Bb
    • B
    • C
    • Db
    • D
    • Eb
    • E
    • F
    • F#
    • G
    • Ab
  • Adicionar à lista

Afinação da cifra

Afinador online

    0 comentários

    Ver todos os comentários

    Entre para o Cifra Club PRO

    Tenha acesso a benefícios exclusivos no App e no Site

    • Chega de anúncios

    • Mais recursos no app do Afinador

    • Atendimento Prioritário

    • Aumente seu limite de lista

    • Ajude a produzir mais conteúdo

    Cifra Club Pro

    Aproveite o Cifra Club com benefícios exclusivos e sem anúncios
    Cifra Club Pro
    Aproveite o Cifra Club com benefícios exclusivos e sem anúncios
    OK