Cifra Club

Black Friday Cifra Club

Dois Passos

LS Jack

Cifra: Principal (violão e guitarra)
tom: B
Intro:
E|--------------------------------------------------|
B|--------------------------------------------------|
G|-----------5--7/9-7-5-----------------------------|
D|--5r6r7--8------------7---------------------------|
A|--------------------------------------------------|
E|--------------------------------------------------|

E|--------------------------------------------------|
B|----------------------5-5p6-5-3----3h5-3---3------|
G|-----------5--7-9-9b------------5--------5---5----|
D|--5r6r7--8----------------------------------------|
A|--------------------------------------------------|
E|--------------------------------------------------|

E|--------------------------------------------------|
B|--------------------------------------------------|
G|-----------5--7/9-7-5-----------------------------|
D|--5r6r7--8------------7---------------------------|
A|--------------------------------------------------|
E|--------------------------------------------------|

E|--------------------------------------------------|
B|-------------------------5-5p6-5-3----3h5-3---3---|
G|-----------5--7-9-12--9---------5--------5---5----|
D|--5r6r7--8----------------------------------------|
A|--------------------------------------------------|
E|--------------------------------------------------|

B              C#m7              D#m7
De bobeira na minha, vou na contramão
       C#m7                     B
Quando você chegou trazendo o calor
            C#m7
Uma bomba relógio
                D#m7       C#m7
Que explode na hora do amor
B               C#m7                    D#m7
Vai descendo a poeira depois da explosão
           C#m7               B
Os meus pedaços espalhados no chão
               C#m7
Engatilho e disparo
            D#m7       C#m7
Mas logo te beijo a mão

C#m7      D#m7
Te necessito
E                          C#m7
Como o frio ao vinho tinto
           D#m7             F#
E é tão difícil viver sem você assim
                              B
Tão perto mais tão longe de mim

B            C#m7          D#m7
E quando o bilhete chegar aí
 C#m7                   B
Dizendo com é lindo te ver
              C#m7              D#m7
Se lembre que sempre estarei aqui
   C#m7            B
A dois passos de você.

B              C#m7              D#m7
De bobeira na minha, vou na contramão
       C#m7                     B
Quando você chegou trazendo o calor
            C#m7
Uma bomba relógio
                D#m7           C#m7
Que explode na hora do amor

C#m7      D#m7
Te necessito
E                          C#m7
Como o frio ao vinho tinto
           D#m7             F#7
E é tão difícil viver sem você assim
                              B
Tão perto mais tão longe de mim

B            C#m7          D#m7
E quando o bilhete chegar aí
 C#m7                   B
Dizendo com é lindo te ver
              C#m7              D#m7
Se lembre que sempre estarei aqui
   C#m7            B
A dois passos de você.
00:00 / 00:00
Outros vídeos desta música
Repetir
Outros vídeos desta música
Composição de Marcus Menna / Sergio Morel
Colaboração e revisão:
  • Mansinho Jr.
43.345 exibições
    • ½ Tom
    • A
    • Bb
    • B
    • C
    • Db
    • D
    • Eb
    • E
    • F
    • F#
    • G
    • Ab
  • Adicionar à lista

    0 comentários

    Ver todos os comentários

    Entre para oCifra Club PRO

    Tenha acesso a benefícios exclusivos no App e no Site

    • Chega de anúncios

    • Prioridade de compra em lançamentos

    • Mais recursos no app do Afinador

    • Atendimento Prioritário

    • Descontos nos produtos Cifra Club

    • Ajude a produzir mais conteúdo

    00:00 / 00:00

    Cifra Club Pro

    Aproveite o Cifra Club com benefícios exclusivos e sem anúncios
    Cifra Club Pro
    Aproveite o Cifra Club com benefícios exclusivos e sem anúncios
    OK