Cifra Club

Sem Radar

LS Jack

Cifra: Principal
exibições 1.552.514
Tom: F
Intro:
     F9      C/E     D5       A/E  A4/E A5/E
E|------------------------------------------|
B|-----2-------2-------4----3-----4---6-----|
G|---1---1---1---1---3---3----3-------------|
D|-4-------3-------1------------3---3---3/4-|
A|------------------------------------------|
E|------------------------------------------|

     Bb5/F       F9      C/E
E|------------------------------------------|
B|-7-------7-----2-------2------------------|
G|---4---4-----1---1---1---1----------------|
D|-----4-----4-------3----------------------|
A|------------------------------------------|
E|------------------------------------------|

(primeira parte)

(solo)

F             C
   É só me recompor
Dm                 A    Bb
  Mas eu não sei quem  sou
                 F    C
  Me falta um pedaço teu
F            C
  Preciso me achar
Dm                A Bb
  Mas em qualquer lugar estou
               F     C    Eb
  Rodando sem direção eu vou...
F              C
  Morcego sem radar
Dm             A Bb
  Voando à procurar
                  F        C
  Quem sabe um indício teu
F              C
  Queimando toda fé
Dm                  A Bb
  Seja o que Deus quiser

  Eu sei!
                  F       C   Eb
  Que amargo é o mundo sem você....

(base)

 F             C
  Que amargo é o mundo sem você....

Refrão:
F               C
  Você me entorpeceu
Dm         A  Bb
  E desapareceu
         F           C
  Vou ficando sem ar
F                C
  O mundo me esqueceu
Dm             A  Bb
  Meu sol escureceu
         Gm
  Vou ficando sem ar
Bb             C
  Esperando você voltar...

(passagem)

(solo)

(parte 1)
    F7M                            Em7(11)
E|---------6---------------6----------------|
B|-----6-------6-------6-------6------------|
G|-------6-------6-------8-------8----------|
D|---8-------8-------6-------6--------------|
A|-9---------------8------------------------|
E|------------------------------------------|

(parte 2)
   Dm7             Em7(11)
E|---------6---------------6----------------|
B|-----7-------7-------6-------6------------|
G|-------6-------6-------8-------8----------|
D|---8-------8-------6-------6--------------|
A|-6---------------8------------------------|
E|------------------------------------------|

(parte 3 - repete parte 1)

(parte 4)
   Dm7       Em7(11)
E|---------6-6------------------------------|
B|-----7-----6------------------------------|
G|-------6---8------------------------------|
D|---8-------6------------------------------|
A|-6---------8------------------------------|
E|------------------------------------------|


F             C
   É só me recompor
Dm                 A   Bb
  Mas eu não sei quem sou
                 F       C
  Me falta um pedaço teu
F              C
  Queimando toda fé
Dm                  A     Bb
  Seja o que Deus quiser

  Eu sei!
                  F       C     Eb
  Que amargo é o mundo sem você....

F               C
  Você me entorpeceu
Dm         A  Bb
  E desapareceu
         F          C
  Vou ficando sem ar
F                C
  O mundo me esqueceu
Dm             A  Bb
  Meu sol escureceu
         Gm
  Vou ficando sem ar
Bb              C
  Esperando você ...

(segunda parte)

(parte 1)
    F (  D)
E|-6-7-9-6---6---------6---------------------|
B|---------7-----7-7-9---7-------6-----------|
G|-------------6-----------6-8-6-------------|
D|-------------------------------------------|    (2x)
A|-------------------------------------------|
E|-------------------------------------------|

E|-6-7-9-6---6---------6---------------------|
B|---------7-----7-7-9---7-------------------|
G|-------------6-----------6-8-6-------------|
D|-------------------------------------------|
A|-------------------------------------------|
E|-------------------------------------------|

(parte 2)
   C
E|---9-----9-----9-----9-----9---------------|
B|-9---9-----9-----9-----9-----9-------------|
G|-------6-----6-----6-----6-----6-----------|
D|-------------------------------------------|
A|-------------------------------------------|
E|-------------------------------------------|

(parte 3- tocar novamente a primeira parte)

(terceira parte)

Gm
  Escrevendo minha própria lei
Am
  Desesperadamente eu sei
Bb
  Tentando aliviar
C
  Tentando não chorar
Gm
  Por mais que eu tente esquecer
Am                             Bb
  Memórias vem me enlouquecer
Gm          C         Eb
  Minha sentença é você...

(repete o refrão)

(solo final)

(parte 1)
E|-14-14-14-14-11-------------------------|
B|-14-14-14-14-11-14-14-11----------------|
G|----------------13-13-11-10/11----------|
D|-------------------------10/11-13-11----|
A|-------------------------------13-11----|
E|----------------------------------------|

(parte 2)
E|-14-14-14-14-11-------------------------|
B|-14-14-14-14-11-14-14-11----------------|
G|----------------13-13-11-10/11-10/11----|
D|-------------------------10/11-10/11----|
A|----------------------------------------|
E|----------------------------------------|

(parte 3 - epete parte 1)

(parte 4)
E|-14-14-14-14-11---11--------------------|
B|-14-14-14-14-11---12--------------------|
G|------------------11--------------------|
D|------------------9---------------------|
A|----------------------------------------|
E|----------------------------------------|

Acordes para:

    0 comentários

      mostrar mais comentários

      Conseguiu tocar?

      47tocaram0ainda não

      Grave um vídeo tocando Sem Radar e mande pra gente!

      00:00 / 00:00
      outros vídeos desta música
      repetirqualidadeautomática
      Outro vídeos desta música
        00:00 / 00:00
        automática
        Capítulos
        • Início
        • Dicas iniciais
        • Acordes da introdução
        • Tocando arpejo (solo) da introdução
        • Ensinando arpejo (solo) da intro
        • Acordes da primeira parte
        • Tocando primeira parte
        • Ensinando ritmo da música
        • Acordes e ritmo do refrão
        • Tocando refrão
        • Acordes da passagem
        • Tocando passagem
        • Ensinando ritmo da passagem
        • Ensinando o solo da passagem (parte 1)
        • Ensinando o solo da passagem (parte 2)
        • Ensinando o solo da passagem (repete parte 1)
        • Ensinando o solo da passagem (parte 3)
        • Tocando trecho da música (repetição)
        • Acordes da segunda parte
        • Tocando segunda parte
        • Ensinando ritmo da segunda parte
        • Ensinando o solo da segunda parte
        • Ensinando solo (parte 1)
        • Ensinando solo (parte 2)
        • Ensinando solo (parte 3 - repete parte 1)
        • Solo final
        • Solo final (parte 1)
        • Solo final (parte 2)
        • Solo final (parte 3 - repete parte 1)
        • Solo final (parte 4)
        • Encerramento
        OK