Cifra Club

Thunderclouds

LSD (Labrinth, Sia & Diplo)

Cifra: Principal (violão e guitarra)
Selo Cifra Club: esta cifra foi revisada para atender aos critérios oficiais da nossa Equipe de Qualidade.
tom: A
[Tab - Riff 1]

Parte 1 De 4
E|---------------------------------------|
B|---------------------------------------|
G|---------------------------------------|
D|--2--2----0----2------2----------------|
A|-------2-----------2----2---3~---2--3~-|
E|-------------------------------3-------|

Parte 2 De 4
E|---------------------------------------|
B|---------------------------------------|
G|---------------------------------------|
D|------0------2-------------------------|
A|--2------2-----------------------------|
E|---------------------------------------|

Parte 3 De 4
E|---------------------------------------|
B|---------------------------------------|
G|---------------------------------------|
D|-----2----0----2------2----------------|
A|-------2-----------2----2---3~---2--3~-|
E|-------------------------------3-------|

Parte 4 De 4
E|---------------------------------------|
B|---------------------------------------|
G|---------------------------------------|
D|------0------2-------------------------|
A|--2------2----------2---3/5------------|
E|-----------------3---------------------|

              Em
All I need is one
                C
One old man is enough
                  Em
Babe, you got it wrong
                            C         D
Please turn your fears into trust, to trust

[Tab - Riff 2]

Parte 1 De 4
E|------------------x-------------------|
B|----------12--12--x--12---------------|
G|---------12-------x--12---------------| (2x)
D|--------12--------x--12---------------|
A|-----10-----------x-------------------|
E|------------------x-------------------|

Parte 2 De 4
E|------------------x-------------------|
B|----------5--5----x--5----------------|
G|---------5--------x--5----------------| (2x)
D|--------5---------x--5----------------|
A|-----3------------x-------------------|
E|------------------x-------------------|

Parte 3 De 4
E|------------------x-------------------|
B|----------12--12--x--12---------------|
G|---------12-------x--12---------------| (2x)
D|--------12--------x--12---------------|
A|-----10-----------x-------------------|
E|------------------x-------------------|

Parte 4 De 4
E|------------------x-------------------|
B|----------5--5----x--5---7------------|
G|---------5--------x--5---7------------|
D|--------5---------x--5---7------------|
A|-----3------------x-------------------|
E|------------------x-------------------|

            G
Where'd the love go
                     C
When all is said and done

(Hey now I got your hands in the air

I'mma go through your stuff)
            G
Where'd the love go
                        C
You put the running into run

(You asking me to stay
D
But I never met a girl I could trust)

       Em           D
You're sayin' those words
         G       C
Like you hate me now
Em           D
Our house is burning
            G         C
When you're raised in hell
Em          D          G          C
Here in the ashes your soul cries out
    Em         D             G        C
But don't be afraid of these thunderclouds

             Em        D
These thunderclouds oh no
             G         C
These thunderclouds oh no no

              Em
All I need is love
                C
All I need is a word
              Em
All I need is us
                      C         D
You turned nouns into verbs, to verbs

            G
Where'd the love go
                     C
When all is said and done
(Hey now put your hands in the air
I'mma go through your stuff)
            G
Where'd the love go
                         C
You put the running into run
(You're asking me to stay)
      D
But I never met a man I could trust)

       Em           D
You're sayin' those words
         G       C
Like you hate me now
Em           D
Our house is burning
            G       C
When you're raising hell
Em          D          G          C
Here in the ashes your soul cries out
    Em       D               G      C
But don't be afraid of these thunderclouds

             Em        D
These thunderclouds oh no
             G         C
These thunderclouds oh no no

             Em        D
These thunderclouds oh no
             G         C
These thunderclouds oh no no
             Em       D
These thunderclouds oh no
             G        C
These thunderclouds oh no no
Outros vídeos desta música
    23.018 exibições
      • ½ Tom
      • A
      • Bb
      • B
      • C
      • Db
      • D
      • Eb
      • E
      • F
      • F#
      • G
      • Ab
    • Adicionar à lista

    Afinação da cifra

    Afinador online

      0 comentários

      Ver todos os comentários

      Conseguiu tocar?

      24Tocaram1Ainda não

      Grave um vídeo tocando Thunderclouds e nos envie!

      Entre para o Cifra Club PRO

      Tenha acesso a benefícios exclusivos no App e no Site

      • Chega de anúncios

      • Badges exclusivas

      • Mais recursos no app do Afinador

      • Atendimento Prioritário

      • Aumente seu limite de lista

      • Ajude a produzir mais conteúdo

      Cifra Club Pro

      Aproveite o Cifra Club com benefícios exclusivos e sem anúncios
      Cifra Club Pro
      Aproveite o Cifra Club com benefícios exclusivos e sem anúncios
      OK