Cifra Club

Conquistando o Impossível

Luan Santana

Cifra: Completa
exibições 27.087
Tom: E
Intro:

           B       F#/A#   Abm          E
E|--------------------11-11-11p7---12-12/11-----|
B|-7p12-12---7p14-14------------------------12--|
G|----------------------------------------------|
D|----------------------------------------------|
A|----------------------------------------------|
E|----------------------------------------------|


B9          F#/A#
 Acredite é hora de vencer
Abm7             E9
 Essa força vem de dentro e você
B9          F#/A#                A     E   F#  B9
 Você pode até tocar o céu se crer
Riff guitarra:

E|--------11p14----|
B|-12p14--------12-|
G|-----------------|
D|-----------------|
A|-----------------|
E|-----------------|


B9         F#/A#
 Acredite que nenhum de nós
Abm7                  E9
 Já nasceu com jeito pra super herói
B9                F#/A#
 Nossos sonhos, a gente é quem constrói
     A                      E9
 É vencendo os limites, escalando as fortalezas.
        G             A         F#
 Conquistando o impossível pela fé

     B        F#/A#        C#m7          Abm7   F#
Campeão, vencedor, Deus da asas, faz seu voo - ooo
     B        F#/A#     C#m7              Abm7        F#4           F#
Campeão, vencedor, essa fé que te torna imbatível te mostra o seu valor

           B       F#/A#   Abm          E
E|--------------------11-11-11p7---12-12/11-----|
B|-7p12-12---7p14-14------------------------12--|
G|----------------------------------------------|
D|----------------------------------------------|
A|----------------------------------------------|
E|----------------------------------------------|


B9         F#/A#
 Acredite que nenhum de nós
Abm7                  E9
 Já nasceu com jeito pra super herói
B9                F#/A#
 Nossos sonhos, a gente é quem constrói
     A                      E9
 É vencendo os limites, escalando as fortalezas
        G             A         F#
 Conquistando o impossível pela fé

     B        F#/A#        C#m7          Abm7   F#
Campeão, vencedor, Deus da asas, faz seu voo - ooo
     B        F#/A#     C#m7              Abm7        F#
Campeão, vencedor, essa fé que te torna imbatível te mostra o seu valor

C#m7               Abm7           Abm7 F# E
 Tantos recordes, você pode quebrar
C#m7                A           E/G#        F#
 As barreiras você pode ultrapassar e vencer

     B        F#/A#        C#m7          Abm7   F#
Campeão, vencedor, Deus da asas, faz seu voo - ooo
     B        F#/A#     C#m7              Abm7        F#
Campeão, vencedor, essa fé que te torna imbatível te mostra o seu valor
Acordes para:
    Colaboração e revisão:
    • Victor Henrrique
    • Gladyston Andrade
    • vinicius ferreira

    0 comentários

      mostrar mais comentários

      Conseguiu tocar?

      6tocaram0ainda não

      Grave um vídeo tocando Conquistando o Impossível e mande pra gente!

      00:00 / 00:00
      outros vídeos desta música
      repetirqualidadeautomática
      Outro vídeos desta música
        00:00 / 00:00
        automática
        OK