Cifra Club

Morena

Luan Santana

Cifra: Principal (violão e guitarra)
tom: Cm (forma dos acordes no tom de G#m) Capotraste na 4ª casa
[Intro] 

Em  C  G  D

[TAB - SOLO INTRO]

Parte 1 de 2

E|-----------------------------------------------------|
B|----------0--3-1--0-----------0--3-1--0--------------|
G|-0-0-0--2------------0-0-0--2-------------0--2-------|
D|-----------------------------------------------------|
A|-----------------------------------------------------|
E|-----------------------------------------------------|

Parte 2 de 2

E|-/3--/3---2p0-2----/8----7---------------------------|
B|-------------------/10---8---------------------------|
G|-/4--/4---2p0-2--------------------------------------|
D|-----------------------------------------------------|
A|-----------------------------------------------------|
E|-----------------------------------------------------|


[Primeira Parte] 

   Em                              
Você podia ter caprichado menos 
    C
no beijo
   G                               D 
Devia ter pegado leve na hora de amar
   Em          
Podia ter falado não 
              C
ao invés de aceito
    G
Talvez a história da gente 
               D
Não tava onde tá

[Pré-Refrão] 

                    Em 
O que eu dei pra você?
 D
Tudo!
 G                     C
Tudo que eu tinha pra dar
                   Em 
E do quê que adiantou?
 D
Nada!
   G             C
Você só queria brincar

[TAB - Pré-refrão]

Parte 1 de 2
   Em     D     G        C
E|-3---3--2-----7--5--3--0----0--2----------|
B|---0-------3--0--------1------------------|
G|--------------0--------0--0---------------|
D|-2------0----------------------0----------|
A|-----------------------3------------------|
E|--------------3---------------------------|

Parte 2 de 2
   Em     D     G        C
E|-3---3--2-----7--5--3--0------------------|
B|---0-------3--0--------1------------------|
G|--------------0--------0------------------|
D|-2------0---------------------------------|
A|-----------------------3------------------|
E|--------------3---------------------------|


[Refrão] 

 Em         C            G
Se, eu não conseguir dormir
       D
Não é cafeína
   Em         C
É culpa da morena
    G          Am
Do beijo da morena
 Em       C         G
Se, na balada eu zerar
        D
Não faltou esquema
   Em         C
É culpa da morena
    G          Am
Do beijo da morena

    C                          D 
Me diz o que é que eu posso fazer 
                Em
Se ela rouba a cena?
     C                     D                     
Se até deitado no colo da loira 
                Em   D
Eu lembro da morena

[Segunda Parte] 

 Em                C
Parei no segundo exato
                 G                 D
Que seus lábios falsos tocaram os meus
 Em                         C
Sempre que alguém me perguntava, dizia
       G                D     
Sinto nada o amor evaporou, morreu
 
   Em
Mesmo sabendo que as minhas chances 
                  C 
São praticamente nulas
                           G
O meu coração ainda te procura
                           B7
Lá vou eu deitar na minha cama

Me virar pro outro lado e esquecer

Não esqueci

[Refrão] 

 Em         C            G
Se, eu não conseguir dormir
       D
Não é cafeína
   Em         C
É culpa da morena
    G          Am
Do beijo da morena
 Em       C         G
Se, na balada eu zerar
        D
Não faltou esquema
   Em         C
É culpa da morena
    G         
Do beijo da morena

[Pré-Refrão] 

                    Em 
O que eu dei pra você?
 D
Tudo!
 G                     C
Tudo que eu tinha pra dar
                   Em 
E do quê que adiantou?
 D
Nada!
   G             C
Você só queria brincar

[TAB - Pré-refrão Variação do dedilhado]

Parte 1 de 2
   Em          D       G          C
E|------------------------------------------|
B|-3-------------------0--------------------|
G|--------2/4--2---0h2------2--0-------0----|
D|---2---------0-0----------------0h2----2--|
A|--------------------------------3---------|
E|-0-------------------3--------------------|
 
Parte 2 de 2
   Em          D       G          C
E|------------------------------------------|
B|-3------1p0----------0--------------------|
G|-----0-------2---0h2------2--0------------|
D|---2---------0-0----------------0h2-------|
A|--------------------------------3---------|
E|-0-------------------3--------------------|


[Refrão] 

 Em         C            G
Se, eu não conseguir dormir
       D
Não é cafeína
   Em         C
É culpa da morena
   G          D
É culpa da morena

 Em         C            G
Se, eu não conseguir dormir
       D
Não é cafeína
   Em         C
É culpa da morena
    G          Am
Do beijo da morena

 Em       C         G
Se, na balada eu zerar
        D
Não faltou esquema
   Em         C
É culpa da morena
    G          Am
Do beijo da morena

    C                          D 
Me diz o que é que eu posso fazer 
                Em  
Se ela rouba a cena?
     C                     D                     
Se até deitado no colo da loira 
                Em  
Eu lembro da morena
    C                          D 
Me diz o que é que eu posso fazer 
                Em  
Se ela rouba a cena?
     C                     D                     
Se até deitado no colo da loira 
                Em  D
Eu lembro da morena
00:00 / 00:00
Outros vídeos desta música
Repetir
Outros vídeos desta música
Composição de Breno Cesar / Diego Barão / Luan Santana / Lucas Santos / Shylton Fernandes
Colaboração e revisão:
  • Caico Antunes
  • Thiago Almeida
  • Teurri Mattielo
902.540 exibições
  • Simplificar cifra
    • ½ Tom
    • Am
    • Bbm
    • Bm
    • Cm
    • C#m
    • Dm
    • Ebm
    • Em
    • Fm
    • F#m
    • Gm
    • G#m
  • Adicionar à lista

    0 comentários

    Ver todos os comentários

    Entre para oCifra Club PRO

    Tenha acesso a benefícios exclusivos no App e no Site

    • Chega de anúncios

    • Prioridade de compra em lançamentos

    • Mais recursos no app do Afinador

    • Atendimento Prioritário

    • Descontos nos produtos Cifra Club

    • Ajude a produzir mais conteúdo

    00:00 / 00:00
    Capítulos
    • Apresentação / Equipamentos
    • Tocando a Música
    • Acordes da Música
    • Tocando Pré-Refrão
    • Ensinando Pré-Refrão
    • Tocando Refrão
    • Ensinando Ritmo Refrão
    • Tocando Segunda Parte
    • Ensinando Ritmo Segunda Parte
    • Tocando Pré-Refrão Final
    • Ensinando Pré-Refrão Final
    • Tocando Solo Introdução
    • Ensinando Solo Introdução
    • Encerramento

    Cifra Club Pro

    Aproveite o Cifra Club com benefícios exclusivos e sem anúncios
    Cifra Club Pro
    Aproveite o Cifra Club com benefícios exclusivos e sem anúncios
    OK