Cifra Club

Sempre Com Você

Luan Santana

Cifra: Completosolo (violão e guitarra)
tom: Db
(intro)

E|-------------------------------|
B|-------7-----9-------7---------| 4x
G|-8-8-8---8-8---8-8-8---8-8-8-8-|
D|-------------------------------|

(solo)
E|--------------------------|
B|-7h9-9-9-9--7-7-6--4h6-4--|
G|-8---8-8-8--8-8-8--6---6--|    3x
D|--------------------------|
A|--------------------------|
E|--------------------------|

E|--------------------|
B|-----7-7------9-9---|
G|-6/8-8-8--6/8-8-8---|
D|--------------------|
A|--------------------|
E|--------------------|

C#        Ab
E eu que achava que...
Bbm           F#
a vida fosse só uma viagem,
C#           Ab             Bbm        F#
que o mundo tinha me esquecido!
C#        Ab
E eu que achava que...
Bbm            F#
o amor nao existia pra todo mundo,
C#       Ab           Bbm     F#
que era coisa de cimena!

(riff 1)
E|-----------------|
B|----------8/10~ -|
G|-----7h9---------|
D|-7h9-------------|
A|-----------------|
E|-----------------|

(parte 2)
Bbm              Ab
Ai você apareceu...

(riff 2)                              (riff 1 rep.parte2)
E|-9-8-------|                        E|-7/8-7-8p7----|
B|------9----|                        B|-----------8--|
G|--------8--|                        G|--------------|
D|-----------|                        D|--------------|

                     Bbm
com um olhar me convenceu

(riff 3)                               (riff 2 rep.parte2)
E|-----------------|                  E|-------------|
B|-----------------|                  B|-------------|
G|-6h8-6---6h8-6~ -|                  G|-----6-6~ ---|
D|-------8---------|                  D|-6h8---------|
A|-----------------|                  A|-------------|
E|-----------------|                  E|-------------|

           Ab
anjo de asas coloridas,

(riff 4)                               (riff 3 rep.parte2)
E|-9p8---11-|                          E|-8/9-8-9p8-----|
B|-----9----|                          B|-----------9~ -|
G|----------|                          G|---------------|

   F#     Ab      C#
amor alem da vida!

(refrão)
             Ab          Bbm
Eu nao resisti a tanto amor...
           F#     Ab      C#
o meu coração se entregou,
           Ab
E venha o que vier,
    Bbm            F#      Ab    C#
eu vou estar pra sempre com você!

(solo base) C# Ab Bbm F#
(repete parte 2 / riffs da direita)
(refrão 2x)
(solo base) C# Ab Bbm F#

...sempre com você!
Pra sempre com você!

(na repetição da "parte 2" da musica use apenas os riffs da direita)
00:00 / 00:00
Outros vídeos desta música
Repetir
Outros vídeos desta música
Composição de Luan Santana
Colaboração e revisão:
  • Murilo Hoffmann
9.773 exibições
  • Simplificar cifra
    • ½ Tom
    • A
    • Bb
    • B
    • C
    • Db
    • D
    • Eb
    • E
    • F
    • F#
    • G
    • Ab
  • Adicionar à lista

    0 comentários

    Ver todos os comentários

    Entre para oCifra Club PRO

    Tenha acesso a benefícios exclusivos no App e no Site

    • Chega de anúncios

    • Prioridade de compra em lançamentos

    • Mais recursos no app do Afinador

    • Atendimento Prioritário

    • Descontos nos produtos Cifra Club

    • Ajude a produzir mais conteúdo

    00:00 / 00:00

    Cifra Club Pro

    Aproveite o Cifra Club com benefícios exclusivos e sem anúncios
    Cifra Club Pro
    Aproveite o Cifra Club com benefícios exclusivos e sem anúncios
    OK