Cifra Club

Sobrenatural

Luan Santana

Cifra: Principal
exibições 141.535
Tom: G
Intro: Em D C
Solo Guitarra:
E|---------------------------------------|
B|-12~~-12h13------------8-7---------7/8-|
G|-------------7h9---7-9-----9-7--9------|
D|---------------------------------------|
A|---------------------------------------|
E|---------------------------------------|

Em                                Am
Não sei se foi real mais vi você chegar
C                           D
Por entre as flores brancas num lindo lugar
Em                  Am
Magia de outro planeta sem igual
C                    D
Amor descontrolado fora do normal
     C             G                 D
Sobrenatural, Sobrenatural
   G       Em        C   D                 G         Em        C     B
E|-3p2-----------------3p2---------------|-3p2-----------------12-10--------------|
B|----5-3-5--5p3----------5-3------------|----5-3-5--5p3------------12p10-7---7-8-|
G|--------------5-4-5--------5-4-2-0-2/4-|--------------5-4-5--------------7-9----|
D|---------------------------------------|----------------------------------------|
A|---------------------------------------|----------------------------------------|
E|---------------------------------------|----------------------------------------|

Em          D                   C
Foi como se dois mundos se encontrassem
Num elo de paixão
Em            D          C
Saiu de uma simples fantasia e entrou no meu coração
Em        D              C
Mesmo sem te conhecer o meu olhar
Já encontrava o seu
Em          D                C
E mesmo sem saber o que eu sentia
         Em
Eu já sabia
C                           Am
Sabia que uma hora a gente iria se encontrar
C
E dois mundos diferentes
            D
Fossem pra sempre se juntar

Refrão:
G  D      C                   Am
Abre a janela do seu coração
                               D
Venha ver o lindo dia que eu fiz pra nós dois
G  D              C
Deixe, que eu te leve por um universo
Am                       D
Onde não exista bem ou mal
Am                      D
Onde mais nada seja normal
           G
Amor sobrenatural
Solo:
    G       C        Am   C                 G       C        Am  C
E|-3p2-----------------3p2---------------|-3p2-----------------12-10--------------|
B|----5-3-5--5p3----------5-3------------|----5-3-5--5p3------------12p10-7---7-8-|
G|--------------5-4-5--------5-4-2-0-2/4-|--------------5-4-5--------------7-9----|
D|---------------------------------------|----------------------------------------|
A|---------------------------------------|----------------------------------------|
E|---------------------------------------|----------------------------------------|

Em          D                   C
Foi como se dois mundos se encontrassem
Num elo de paixão
Em            D        C
Saiu de uma simples fantasia e entrou no meu coração
Em     D              C
Mesmo sem te conhecer o meu olhar
Já encontrava o seu
Em       D                C
E mesmo sem saber o que eu sentia
         Em
Eu já sabia
C                           Am
Sabia que uma hora a gente iria se encontrar
C
E dois mundos diferentes
            D
Fossem pra sempre se juntar

Refrão 2x:
G  D      C                   Am
Abre a janela do seu coração
                               D
Venha ver o lindo dia que eu fiz pra nós dois
G  D              C
Deixe, que eu te leve por um universo
Am                       D
Onde não exista bem ou mal
Am                      D
Onde mais nada seja normal
           G
Amor sobrenatural

Solo Guitarra:
E|---------------------------------------|
B|-12~~-12h13------------8-7---------7/8-|
G|-------------7h9---7-9-----9-7--9------|
D|---------------------------------------|
A|---------------------------------------|
E|---------------------------------------|

Solo Final:
E|-7-10-7-----------7-------------|-7-10-7-------------8-8-8-8---|
B|--------10--10-10---10-8-5----8-|--------10--10-10-8---------8-|
G|----------------------------5---|------------------------------|
D|--------------------------------|------------------------------|
A|--------------------------------|------------------------------|
E|--------------------------------|------------------------------|
Acordes para:

    0 comentários

      mostrar mais comentários

      Conseguiu tocar?

      7tocaram0ainda não

      Grave um vídeo tocando Sobrenatural e mande pra gente!

      00:00 / 00:00
      outros vídeos desta música
      repetirqualidadeautomática
      Outro vídeos desta música
        00:00 / 00:00
        automática
        OK