Cifra Club

Sufoco

Luan Santana

Cifra: Principal
exibições 197.032
Tom: C#
Refrão:
               C#               G#
Eu sei que é amor e sinto pra valer
                  Bbm              G#
Mais por você eu dou a cara pra bater
                  C#                    G#
Se eu te peço um beijo mata o meu desejo
                F#               G#
E tira o meu sufoco com o seu prazer

Solo: ( C  G  Am  F )
E|-x--x--x----x----x--x--x--x----x--x--x----x----x--x--x--x------|
B|-x--x--x----x----x--x--x--x----x--x--x----x----x--x--x--x------|
G|-10-10-10---10---10-11-10-8----10-10-10---10---10-11-10-6------|
D|-x--x--x----x----x--x--x--x----x--x--x----x----x--x--x--x------|
A|-8--8--8----8----8--9--8--6----8--8--8----8----8--9--8--4------|
E|-x--x--x----x----x--x--x--x----x--x--x----x----x--x--x--x------|

E|-------------------------4-----------------2-2-4---------------|
B|-7-7-7-6-4/6--6-6--6-7-6-----4-7-6-4--2-2--2-2-4---------------|
G|---------------------------------------------------------------|
D|---------------------------------------------------------------|
A|---------------------------------------------------------------|
E|---------------------------------------------------------------|

            C#                  G#
Como que eu faço pra tirar da cabeça
          Bbm                    F#
Sendo que você não sai do meu coração
               C#                   G#
Sempre que me pede pra que eu te esqueça
           Bbm              F#
Fico no sufoco com essa paixão

D#m           G#                 F
Eu não sou brinquedo, mas você me pisa
              Am
E sem querer judia do meu coração
D#m
E faz minha cabeça
F#              Bbm            G#
Sempre que decido te dizer um não

Refrão 2x:
( A )
             D                A
Eu sei que é amor e sinto pra valer
                  Bm               A
Pois por você eu dou a cara pra bater
                  D                  A
Se eu te peço um beijo mata o meu desejo
                G                 A        D A Bm
E tira o meu sufoco com o seu prazer

     G                 A        D A Bm G A ( D )
E tira o meu sufoco com o seu prazer
Acordes para:

    0 comentários

      mostrar mais comentários

      Conseguiu tocar?

      20tocaram0ainda não

      Grave um vídeo tocando Sufoco e mande pra gente!

      00:00 / 00:00
      outros vídeos desta música
      repetirqualidadeautomática
      Outro vídeos desta música
        00:00 / 00:00
        automática
        OK