Cifra Club

Borboletas

MC Luan

Cifra: Principal (violão e guitarra)
tom: D
(intro) Bm  D  A  E  Bm  G  A  E

E |-----------------------------------5-----------
B |-------------------------------------3h5--3-3--
G |-------6/7-6--4----------6/7-6--4--------------
D |-----9----------4------9-----------------------
A |-7h9---------------7h9-------------------------
E |-----------------------------------------------

E |---------------------------------
B |---------------------------------
G |---------------------------------
D |--7-9-9-7--9-7--9-9-7-9-7--------
A |-9--------9---9------9---9-------
E |---------------------------------

E |---------------------------------
B |---------------------------------
G |---------------------------------
D |-7-7-4-7-4-7-7-4-7-4-------------
A |------7---7-----7---7------------
E |---------------------------------

E |---------------------------------
B |---------------------------------
G |-7-7-6-7-6-7-7-6-7-6-------------
D |------7---7-----7---7------------
A |---------------------------------
E |---------------------------------

E |-------------
B |-------------
G |-9--9-7-9-7--
D |-9--9-7-9-7--
A |-------------
E |-------------

E |---3-3-3-----0-0-0-------2-2-2------
B |---3-3-3-----2-2-2-------2-3-2------
G |---0-0-0-----2-2-2-------4-4-4------
D |---0-0-0-----2-2---------4-4-4------
A |---2------0--0-------2---2-2-2------
E |-3-----------------------2-2-2------

    Bm                      D
Percebo que o tempo já não passa
                       A     E
Você diz que não tem graça amar assim
     Bm                    D
Foi tudo tão bonito, mas voou pro infinito
     A             E
Parecido com borboletas de um jardim

E |-------------
B |-------------
G |---6h7p6---4-
D |-7-------7---
A |-------------
E |-------------

G          D
Agora você volta
     A                         E
E balança o que eu sentia por outro alguém

riff da 1ª parte          riff da 2ª parte
E |-------2-3-3-           E|------------
B |-----3-------           B|------2-4-5-
G |--2h4--------           G|-----4------
D |-------------           D|--2h4-------
A |-------------           A|------------
E |-------------           E|------------

G                   D
Dividido entre dois mundos
                A                       E
Sei que estou amando mas ainda não sei quem...

(refrão)
      G           D
Não sei dizer o que mudou
      A           E
Mas nada está igual
      G                D           A            E
Numa noite estranha a gente se estranha e fica mal
   G           D       A              E
Você tenta provar que tudo em nós morreu
      G            D
Borboletas sempre voltam
     A             E
E o seu jardim sou eu.

(solo) Bm  D  A  F#  G  A  Bm

E |-12-12-12--13-13-13--12-12-12-12-12-12--13-13-12-12--
B |-----------------------------------------------------
G |-----------------------------------------------------
D |-----------------------------------------------------
A |-----------------------------------------------------
E |-----------------------------------------------------

E |-12-12-12--13-13-13--12-12-12-12-12-12--13-13-12-12--
B |-----------------------------------------------------
G |-----------------------------------------------------
D |-----------------------------------------------------
A |-----------------------------------------------------
E |-----------------------------------------------------

E |-12-12-12--13-13-13--12-12-12-12--12-12-12--11-11-11--10-10-10--9-9--
B |---------------------------------------------------------------------
G |---------------------------------------------------------------------
D |---------------------------------------------------------------------
A |---------------------------------------------------------------------
E |---------------------------------------------------------------------

E |-------------
B |-------------
G |-9--9-7-9-7--
D |-9--9-7-9-7--
A |-------------
E |-------------

E |---3-3-3-----0-0-0-------2-2-2------
B |---3-3-3-----2-2-2-------2-3-2------
G |---0-0-0-----2-2-2-------4-4-4------
D |---0-0-0-----2-2---------4-4-4------
A |---2------0--0-------2---2-2-2------
E |-3-----------------------2-2-2------

(repete tudo)
(refrão 2x)
G            D
     sempre voltam
     A             E
E o seu jardim sou eu.

(final)
E |-12-12-12--13-13-13--12-12-12-12-12-12--13-13-12-12--12---0--
B |----------------------------------------------------------0--
G |----------------------------------------------------------1--
D |----------------------------------------------------------2--
A |----------------------------------------------------------2--
E |----------------------------------------------------------0--
00:00 / 00:00
Outros vídeos desta música
Repetir
Outros vídeos desta música
Composição de Victor / Léo
Colaboração e revisão:
  • Luan Ferreira
1.370 exibições
    • ½ Tom
    • A
    • Bb
    • B
    • C
    • Db
    • D
    • Eb
    • E
    • F
    • F#
    • G
    • Ab
  • Adicionar à lista

    0 comentários

    Ver todos os comentários

    Entre para oCifra Club PRO

    Tenha acesso a benefícios exclusivos no App e no Site

    • Chega de anúncios

    • Prioridade de compra em lançamentos

    • Mais recursos no app do Afinador

    • Atendimento Prioritário

    • Descontos nos produtos Cifra Club

    • Ajude a produzir mais conteúdo

    00:00 / 00:00

    Cifra Club Pro

    Aproveite o Cifra Club com benefícios exclusivos e sem anúncios
    Cifra Club Pro
    Aproveite o Cifra Club com benefícios exclusivos e sem anúncios
    OK