Cifra Club

Mala Pronta

MC Luan

Cifra: Principal (violão e guitarra)
tom: C
(intro) ( C   Am   F   G )

   C                  Am                 F                       G
E |------------------|------------------|------------------------|----------------------------
B |------------------|------------------|------------------------|----------------------------
G |--------5-5---5-4-|------------------|------------------------|-5-5-4-4h5-5-5----5-4-2-2h4-
D |--5-5-5-----------|7-------7-7---7-5-|---7-5-7-5-7----5-7-5-7-|----------------------------
A |------------------|-7-7-7-----------8|------------------------|----------------------------
E |------------------|------------------|------------------------|----------------------------


 (C para Am)                   (Am para F)
  (riff 1)                       (riff 2)
E |----------                  e|----------
B |----------                  B|----------
G |----------                  G|----------
D |----------                  D|---2-0----
A |---3-2-0--                  A|-------1--
E |----------                  E|----------

C                    Am
Você passou da conta

e me tirou do sério
 F                                  G
Você fez tudo errado e acabou o mistério
C                     Am
Hoje eu tirei a prova

Hoje eu sai pra rua
 F                               G
Hoje eu dividi a minha vida e a sua

Em                Am
Não dá mais, não valeu
       F               G
Dessa vez, você me perdeu

(refrão)
      C                   Am
      Deixe a mala pronta, arrume as suas roupas
      F                              G
      Pode ir embora que eu arranjo outra
      C                   Am
      Eu to falando sério, pode acreditar
      F                                                  G
      Sabendo que eu tenho razão porque é que eu vou chorar
                     C
      Deixe a mala pronta

(intro)

Em                Am
Não dá mais, não valeu
       F               G
Dessa vez, você me perdeu

(refrão)
00:00 / 00:00
Outros vídeos desta música
Repetir
Outros vídeos desta música
Composição de Hugo Pena e Gabriel
Colaboração e revisão:
  • Luan Ferreira
527 exibições
    • ½ Tom
    • A
    • Bb
    • B
    • C
    • Db
    • D
    • Eb
    • E
    • F
    • F#
    • G
    • Ab
  • Adicionar à lista

    0 comentários

    Ver todos os comentários

    Entre para oCifra Club PRO

    Tenha acesso a benefícios exclusivos no App e no Site

    • Chega de anúncios

    • Prioridade de compra em lançamentos

    • Mais recursos no app do Afinador

    • Atendimento Prioritário

    • Descontos nos produtos Cifra Club

    • Ajude a produzir mais conteúdo

    00:00 / 00:00

    Cifra Club Pro

    Aproveite o Cifra Club com benefícios exclusivos e sem anúncios
    Cifra Club Pro
    Aproveite o Cifra Club com benefícios exclusivos e sem anúncios
    OK