Cifra Club

Aprenda

Tu Gitana

Luar na Lubre

Cifra: Principal (violão e guitarra)
tom: G
Intro:

Base: (Pode tocar  dedilhado) x (Sempre Acompanhado a música)

E|----------------------------------|----------------------------------|
B|-------3------3------3-------3----|-------3------3-------3------3----|
G|-------2------2------2-------2----|-------2------2-----2------2------|
D|-----0------0------0-------0------|-----0------0-----0------0--------|
A|--2------0------------------------|--2------0------------------------|
E|----------------3-------3---------|----------------------------------|

Violino Solo :
00:11
E|----------------------------------|----------------------------------|
B|--3------2------2h3---------------|--7------5--------5h7-------------|
G|----------------------------------|----------------------------------|
D|----------------------------------|----------------------------------|
A|----------------------------------|----------------------------------|
E|----------------------------------|----------------------------------|

Solo 2 :
(Sitar/Sitara)

00:19
E|---7-9-10/12-9h10h9-7-------------|----------------------------------|
B|----------------------10----------|----------10---8-7----------------|
G|----------------------------------|---7-9-11----9--------------------|
D|----------------------------------|----------------------------------|
A|----------------------------------|----------------------------------|
E|----------------------------------|----------------------------------|

E|---7-10-9--7-9/10-9-7-------------|---7-9-10--12--9--10-9-7----------|
B|----------------------10-8--------|----------------------------------|
G|----------------------------------|----------------------------------|
D|----------------------------------|----------------------------------|
A|----------------------------------|----------------------------------|
E|-----------------------------------|----------------------------------|
Compositor não encontrado.
Colaboração e revisão:
  • Ian Peregrino
1.359 exibições
    • ½ Tom
    • A
    • Bb
    • B
    • C
    • Db
    • D
    • Eb
    • E
    • F
    • F#
    • G
    • Ab
  • Adicionar à lista

    0 comentários

    Ver todos os comentários

    Conseguiu tocar?

    1 Tocaram 0 Ainda não

    Grave um vídeo tocando Tu Gitana e nos envie!

    00:00 / 00:00
    Outros vídeos desta música
    Repetir Qualidade Automático
    Outros vídeos desta música
    00:00 / 00:00
    Automático

    Cifra Club Pro

    Aproveite o Cifra Club com benefícios exclusivos e sem anúncios
    Cifra Club Pro
    Aproveite o Cifra Club com benefícios exclusivos e sem anúncios
    OK