Cifra Club

E Daí Se Sofri

Lucas Lucco

Cifra: Principal
exibições 27.341
Tom: C
E|---------------------------------------------------/
B|-----------5-6-5-5-------------5-6-5-5-5-4-4-------/
G|-5-5-5-5-5-5-5-5-5---5-5-5-5-5-5-5-5-5-5-5-5-------/    2x
D|-5-5-5-5-5-----------5-5-5-5-5---------------------/
A|---------------------------------------------------/
E|---------------------------------------------------/    Enviado por Henrique.

Intro 2x: Am F C G

Am               F
Me explica a piada
C
Ate agora ninguém entendeu
G
Ou deu risada
Am               F
Ou onde ta a graça
C
Em levar quem tanto te acolheu
G
Pra essa enrascada

Am                F
Eu me mantive perto
                C
Não pude evitar
                 G
A queda foi certeira
                Am
Mais vou me levantar
                 F                      C
Eu perdi o equilíbrio  o juízo  assumo!
                  G
Fiquei na corda bamba
             F
Sem luz no escuro
 G
No escuro...

Refrão:
            C   F
Tudo bem eu cai
       Am            G
No seu conto na historia
            C   F
Mais sobrevivi
            Am            G
Me diz quem é mais forte agora?
             C    F
E daí se eu sofri
              Am             G
Pelo menos caindo deu pra aprender
             C   F
Que o nosso fim
          Am              G
Foi o meu único momento feliz
          Am F C G
Com você...

E|---------------------------------------------------/
B|-----------5-6-5-5-------------5-6-5-5-5-4-4-------/
G|-5-5-5-5-5-5-5-5-5---5-5-5-5-5-5-5-5-5-5-5-5-------/    2x
D|-5-5-5-5-5-----------5-5-5-5-5---------------------/
A|---------------------------------------------------/
E|---------------------------------------------------/

Am                F
Eu me mantive perto
                C
Não pude evitar
                 G
A queda foi certeira
                Am
Mais vou me levantar
                 F                      C
Eu perdi o equilíbrio  o juízo  assumo!
                  G
Fiquei na corda bamba
             F
Sem luz no escuro
 G
No escuro...

Refrão:
            C   F
Tudo bem eu cai
       Am            G
No seu conto na historia
            C   F
Mais sobrevivi
            Am            G
Me diz quem é mais forte agora?
             C    F
E daí se eu sofri
              Am             G
Pelo menos caindo deu pra aprender
             C   F
Que o nosso fim
          Am              G
Foi o meu único momento feliz
             Dm C F
E daí se eu sofri
              Am             G
Pelo menos caindo deu pra aprender
             Dm C F
Que o nosso fim
          Am              G
Foi o meu único momento feliz
          Am F C G
Com você...
Acordes para:
    Colaboração e revisão:

    0 comentários

      mostrar mais comentários

      Conseguiu tocar?

      10tocaram0ainda não

      Grave um vídeo tocando E Daí Se Sofri e mande pra gente!

      00:00 / 00:00
      outros vídeos desta música
      repetirqualidadeautomática
      Outro vídeos desta música
        00:00 / 00:00
        automática
        OK