Cifra Club

Aprenda

Mozão

Lucas Lucco

Tab de baixo: Principal
Intro
G|---------------------------------------------------------7~-|
D|-------------------------------------------------------7----|
A|--------------3-5-5-5-5-5*-3-------------3-3-3-3-3-3-5------|
E|-\3-3-3-3-3*-5--------------5-5-5-5-5-5*--------------------|

1 Verso
(Oh mozão, cheguei à conclusão)
G|---------------------------------------------------|
D|---------------------------------------------------|
A|---------------------3-5-5-5-5555-5-5-5555-3-5-3-5-|
E|3-3-3-3333-3-3-3333-5------------------------------|

G|---------------------------------7--|
D|--------------------------------7-7-|
A|--------------------3-3-3-3-3-5-----|
E|-5-5-5-555-5-5-5555-----------------|

Pre-Refrão
(Eu sei, tô viajando)
G|------------------------------------------------------7~-----|
A|-------------------------------------------------------------|
D|---------------3-3-3-3-3-333-5--------------3-5-5-5-5----5-5-|
E|-5-5-5-5-5-555----------------3-3-3-3-3-33-5-----------------|

G|-----------------------------------------------------7~------|
A|-------------------------------------------------------------|
D|---------------3-3-3-3-3-333-5--------------3-5-5-5-5---5-3*/|
E|-5-5-5-5-5-555----------------3-3-3-3-3-33-5-----------------|

Refrão
G|-------------------------------------------------------7~---|
D|------------------------------------------------------------|
A|\------------3-5-5-5-5-5*-3--------------3-3-3-3-3-3-5---5-5|
E|-3-3-3-3-3*-5--------------5-5-5-5-5-5*-3-------------------|

G|----------------------------------------------------|
D|----------------------------------------------------|
A|---------------------3-5-5-5-5555-5-5-5555-3-5-3-5-|
E|3-3-3-3333-3-3-3333-5------------------------------|

G|---------------------------------7-|
D|--------------------------------7--|
A|--------------------3-3-3-3-3-5----|
E|-5-5-5-555-5-5-5555----------------|

Intro
G|--------------------------------------7~-|
D|-------------------------------------7---|
A|-----------3-5-5-5~-3--------3-3-3-5~----|
E|-3-3-3-3~-5------------5-5-5~------------|


Verso 2
G|-------------------------------------------------------------|
D|-------------------------------------------------------------|
A|----------------5-55-5-55-5-55----------------3-33-3-33-5-55-|
E|-3-33-3-33-3-33----------------5-55-5-55-5-55----------------|

G|------------------------------------------|
D|------------------------------------------|
A|----------------3-3-3-333-3-3-333-3-5-3-5-|
E|-5-5-5-5-5-5-55---------------------------|

G|------------------------7~-----7~-----|
A|--------------------------------------|
D|--------------3-5-5-5-5----5-5----5-5-|
E|3-3-3-3-3-33-5------------------------|

G|------------------------------------------|
D|------------------------------------------|
A|----------------3-3-3-333-3-3-333-3-5-3-5-|
E|-5-5-5-5-5-5-55---------------------------|

G|------------------------7~---------|
A|-----------------------------------|
D|--------------3-5-5-5-5----5-5-3~/-|
E|3-3-3-3-3-33-5---------------------|

Refrão
G|----------------------------------------------------|
D|----------------------------------------------------|
A|---------------------3-5-5-5-5555-5-5-5555-3-5-3-5-|
E|3-3-3-3333-3-3-3333-5------------------------------|

G|---------------------------------7--|
D|--------------------------------7-7-|
A|--------------------3-3-3-3-3-5-----|(3X)
E|-5-5-5-555-5-5-5555-----------------|

G|--------------------------------------|
D|--------------------------------------|
A|---------------3-55-55--5-5-5-3-5-3-5-|
E|3-----3333333-5-----------------------|

G|---------------------------------7-|
D|--------------------------------7--|
A|--------------------3-3-3-3-3-5----|
E|-5-5-5-555-5-5-5555----------------|

Final
G|--------------------------------------7~-|
D|-------------------------------------7---|
A|-----------3-5-5-5~-3--------3-3-3-5~----|
E|-3-3-3-3~-5------------5-5-5~------------|
Composição de Lucas Lucco / Willibaldo Neto
Colaboração e revisão:
  • andersonsensualize
2.487 exibições

0 comentários

Mostrar mais comentários
00:00 / 00:00
outros vídeos desta música
repetir qualidade Automático
Outros vídeos desta música
00:00 / 00:00
Automático

Cifra Club Pro

Aproveite o Cifra Club com benefícios exclusivos e sem anúncios
7 dias grátis
Cifra Club Pro
Aproveite o Cifra Club com benefícios exclusivos e sem anúncios
7 dias grátis
OK