Cifra Club

Passarinhos

Lucas Lucco

Cifra: Principal (violão e guitarra)
tom: E (forma dos acordes no tom de D) Capotraste na 2ª casa
[Intro]
                D   A         Bm     Bm/A  D/F#    G         D/F#    Em          A
E|------------------------------------------------------------------------------------3-5-------|
B|------------------------------2h3-2----------------------------------------------3-5---5/7-7--|
G|-------------6h7-6-4--2/4-4---2---2-4-2-0----2h4-2--------------------------0-2-4-------------|
D|-4h5-5/7-7---7---7--5------------------------------4p2p0--0h2-4-4-2-2-0-0h2-------------------|
A|----------------------------------------------------------------------------------------------|
E|----------------------------------------------------------------------------------------------|

 D                            A
Dizem que somos um casal meio estranho
Bm                     Bm/A
Uma menina séria e um sonhador
 G                             D/F#
Deitamos sobre a grama pra contar estrelas
 G                           A
Ficamos procurando disco voador

 D                            A
Dizem que somos um casal bem diferente
Bm                     Bm/A
Uma menina séria e um sonhador
  G                           D/F#
Que olhamos um pro outro como as crianças
G                             A
Olham o presente que o Papai Noel deixou

G                           D/F#
O que eles não sabem é que somos dois passarinhos
 G               D/F#           G  A
Namorando em um galho sem espinhos

       D
Somos malucos
         A
Loucos, dois doidinhos
 Bm
Pirados
 Bm/A    D/F#   G
Mas apaixonados
         D  A
Apaixonados

E|-------------------------------|
B|-3/5-5/7-7---------------------|
G|2------------------------------|
D|-------------------------------|
A|-------------------------------|
E|-------------------------------|

 D                            A
Dizem que somos um casal bem diferente
 Bm                    Bm/A
Ninguém entende muito bem o nosso amor
  G                           D/F#
Que olhamos um pro outro como as crianças
G                         A
Olham o presente que o Papai Noel deixou

G                           D/F#
O que eles não sabem é que somos dois passarinhos
 G               D/F#           G  A
Namorando em um galho sem espinhos

         D
Somos malucos
         A
Loucos, dois doidinhos
 Bm
Pirados
 Bm/A    D/F#   G
Mas apaixonados
         D  A
Apaixonados
00:00 / 00:00
Outros vídeos desta música
Repetir
Outros vídeos desta música
Composição de Bruno Caliman
86.650 exibições
    • ½ Tom
    • A
    • Bb
    • B
    • C
    • Db
    • D
    • Eb
    • E
    • F
    • F#
    • G
    • Ab
  • Adicionar à lista

    0 comentários

    Ver todos os comentários

    Conseguiu tocar?

    9 Tocaram 1 Ainda não

    Grave um vídeo tocando Passarinhos e nos envie!

    Entre para oCifra Club PRO

    Tenha acesso a benefícios exclusivos no App e no Site

    • Chega de anúncios

    • Prioridade de compra em lançamentos

    • Mais recursos no app do Afinador

    • Atendimento Prioritário

    • Descontos nos produtos Cifra Club

    • Ajude a produzir mais conteúdo

    00:00 / 00:00

    Cifra Club Pro

    Aproveite o Cifra Club com benefícios exclusivos e sem anúncios
    Cifra Club Pro
    Aproveite o Cifra Club com benefícios exclusivos e sem anúncios
    OK